Give Kudos?
Are you sure you want to give kudos to axehappy?

Add To Songbook?
Are you sure you want to add this song to your songbook?


2,707 bands | 35,037 songs
Search: Register FREE! | Login
Browse Songs:
Browse Bands:
Tool Panel
Discuss This Song

1 2 3 4 5



LoneStar - Come Cryin' To Me (Lead)
Album: From There to Here, Greatest Hits (2003)
Submitter: axehappy (110) on 7/6/03
Month Views: 19 | Total Views: 4,212
Moderator: mo_freestyle | Report This Song?
Song Tools

Comment

Songbook

Kudos

Show Chords

Print

Lonestar  -  Come Cryin' To Me  (lead)

By axehappy  -  axehappy at countrytabs.com


*********************************************************************

/   =   slide up                            \   =   slide down

br  =   bend & release

*********************************************************************


INTRO (repeat x2)


E---------------------------------------|
B---------------------------------------|
G---------------------------------------|
D---------4---------------2-4-4/6-4-----|
A--2-2-4/6-4/6\4-4br-2-------------4----|
E---------------------2/4-----------6---|


LEAD SOLO  (w/ slide)


E-----------------------------------------------------------------|
B--7\4-4/7-7\2-2/4-4\-------------7\4-4/7-7\2-2/4-4---------------|
G--------------------4-4/6--------------------------4/6/8-6-4\1---|
D-------------------------6-6\4-----------------------------------|
A-----------------------------------------------------------------|
E-----------------------------------------------------------------|


 Comments (click here to add a non-facebook comment)
Home | FAQs | Privacy | Terms | Advertise | Contact
Top 100 Tab Sites