Give Kudos?
Are you sure you want to give kudos to chad_jarnigan?

Add To Songbook?
Are you sure you want to add this song to your songbook?


2,711 bands | 35,089 songs
Search: Register FREE! | Login
Browse Songs:
Browse Bands:
Tool Panel
Discuss This Song

1 2 3 4 5



LoneStar - Mr Mom(intro/ending) (Tab)
Album: 16 Biggest Hits (2009)
Submitter: chad_jarnigan (1) on 12/4/04 5 comments
Month Views: 13 | Total Views: 4,115
Moderator: mo_freestyle | Report This Song?
Song Tools

Comment

Songbook

Kudos

Show Chords

Print

capo on the 1st fret

e----------------------------
b------------------2---------
g----2h4p2-----2h4---4p2---2-
d-2h4-------2h4----------4---
a----------------------------
e----------------------------


e----------------------------
b------------------2---------
g----2h4p2-----2h4---4p2-----
d-2h4-------2h4----------4p2-
a----------------------------
e----------------------------


ending

e----------------------------
b------------------2---------
g----2h4p2-----2h4---4p2---2-
d-2h4-------2h4----------4---
a----------------------------
e----------------------------

e----------------------------
b--2-------2-----------------
g----4p2---------------------
d--------4-------------------
a----------------------------
e----------------------------
 sorry about the 3'a instead of 4's ty wild i knew
it was 4's i jsut typed it wrong lol..
 Comments (click here to add a non-facebook comment)
Is this the bluegrass guitar at the very beginning?
-WayneXG95 | 12/5/2004
Try making the the 3's, 4's.
-WildCard76 | 12/5/2004
Thats ok but which part of the intro is this..?
-WayneXG95 | 12/5/2004
its the intro to the song and it plays throughout the song...the ending...is the way the song ends, cause it has a little extra beat to it at the end of the song is all that changes

-chad_jarnigan | 12/6/2004
This tab is wrong. Ignoring the fact that it's tabbed 1/2 a step too low, the transcriber also failed to include what should be the 11th note of the riff, a repeat of the (2) on the B string.
This mistake recurrs throughout the riff.
Listen closely to these songs before you decide to tab them out. Bad tabs don't help anyone.
-spellbound57196 | 3/20/2005
Home | FAQs | Privacy | Terms | Advertise | Contact
Top 100 Tab Sites