Give Kudos?
Are you sure you want to give kudos to yinielin?

Add To Songbook?
Are you sure you want to add this song to your songbook?


2,750 bands | 35,293 songs
Search: Register FREE! | Login
Browse Songs:
Browse Bands:
Tool Panel
Discuss This Song

1 2 3 4 5



LoneStar - Must Be Love (1) (Intro)
Album: I'm Already There (2001)
Submitter: yinielin (1) on 12/19/04
Month Views: 9 | Total Views: 2,713
Moderator: mo_freestyle | Report This Song?
Song Tools

Comment

Songbook

Kudos

Show Chords

Print

By:Yinielin
Lonestar, Must be Love



E--------------------------------------------------------
B--------------------x-x-x-x--------------------2--------
G--------------------x-x-x-x--------------------2--------
D-2-2-0--------------x-x-x-x--2-2-0-------------2--------
A-------0-2-0--------x-x-x-x--------0-2-0-------0--------
E-------------3b-0------------------------3b-0-----------

E--------------------------------------------------------
B------------------5---------------------2---------------
G------------------4---------------------2---------------
D-2-2-0------------2---2-2-0-------------2---------------
A-------0-2-0----------------0-2-0-------0---------------
E-------------3b-0-----------------3b-0------------------
 Comments (click here to add a non-facebook comment)
Home | FAQs | Privacy | Terms | Advertise | Contact
Top 100 Tab Sites