Give Kudos?
Are you sure you want to give kudos to cecil71?

Add To Songbook?
Are you sure you want to add this song to your songbook?


2,630 bands | 34,428 songs
Search: Register FREE! | Login
Browse Songs:
Browse Bands:
Tool Panel
Discuss This Song

1 2 3 4 5





Luke Bryan - All My Friends Say (acoustic Intro) (Intro)
Album: Spring Break With All My Friends (2009)
Submitter: cecil71 (1) on 2/2/11
Month Views: 69 | Total Views: 12,048
Moderator: Ray Terry | Report This Song?
Song Tools

Comment

Songbook

Kudos

Show Chords

Print

Y'all bear with me, This is my first tab, I think this is right but I've been wrong before. 

e------------------------------------------------------------------------------------
B--5>8--8--8--8--------5>8--8--8--8---------5>8--8--8--8-----------------------------
G--5>9------------75----5>9------------75----5>9-------------7--5--------------------
D----------------------------------------------------------------------------7p5h7---
A------------------------------------------------------------------------------------
E------------------------------------------------------------------------------------


e-------------------------------------------------------------------5--8--5--5--5--5-
B------------------------------------------------------------------------------------
G--------2----------2---------------------------------2----------2-------------------
D--------2----------2---------------------------------2----------2-------------------
A--3h4-------3h4------3h4--0--0--0--0----3h4------3h4--------------------------------
E------------------------------------------------------------------------------------
 Comments (click here to add a non-facebook comment)
Home | FAQs | Privacy | Terms | Advertise | Contact
Top 100 Tab Sites