Give Kudos?
Are you sure you want to give kudos to mkrousie?

Add To Songbook?
Are you sure you want to add this song to your songbook?


2,630 bands | 34,427 songs
Search: Register FREE! | Login
Browse Songs:
Browse Bands:
Tool Panel
Discuss This Song

1 2 3 4 5





Luke Bryan - All My Friends Say (Solo)
Album: I'll Stay Me (2007)
Submitter: mkrousie (7) on 7/28/12
Month Views: 45 | Total Views: 5,123
Moderator: Ray Terry | Report This Song?
Song Tools

Comment

Songbook

Kudos

Show Chords

Print

Luke Bryan:  All My Friends Say

Guitar Solo:
    A                D           E   
E[--------------------------------------------------------------------------------]
B[---------------------------------------------5-5---5--7--9--12--9--7-5--5-------]
G[--2-4b-2-4b-2-4b-4b-2---4---------------4/6-------------------------------6-4-2-]
D[----------------------------24/6-4-2-------------------------------------------]
A[--------------------------------------------------------------------------------]
E[--------------------------------------------------------------------------------]
    A                D           E 
E[---------------------------------------------------------------------------]
B[---------------------------------------------------------------------------]
G[--2-4b-2-4b-2-4b-4b-2---4--------------------------------------------------]
D[------------------------------24/6-4-2--4/6-4-2--4/6-4-2---2-4/6-4-2------]
A[------------------------------------------------------------------------2--]
E[------------------------------------------------------------------------0--]
 Comments (click here to add a non-facebook comment)
Home | FAQs | Privacy | Terms | Advertise | Contact
Top 100 Tab Sites