Give Kudos?
Are you sure you want to give kudos to msaenz?

Add To Songbook?
Are you sure you want to add this song to your songbook?


2,635 bands | 34,497 songs
Search: Register FREE! | Login
Browse Songs:
Browse Bands:
Tool Panel
Discuss This Song

1 2 3 4 5





Luke Bryan - Country Man 2 (Intro)
Album: I'll Stay Me (2007)
Submitter: msaenz (1) on 5/31/08 2 comments
Month Views: 24 | Total Views: 7,188
Moderator: Ray Terry | Report This Song?
Song Tools

Comment

Songbook

Kudos

Show Chords

Print

    Okay,here's the intro for the newest soon to be number one from Luke Bryan.  
I would deeply appreciate comments and a rating!!:) thanx


                           -msaenz


NOTE  the notes are all stocato. Play them short.
e----------------------------------------------------------
b----------------------------------------------------------
g---1----------2---2h4-1-----------1-----------------------
d------2---0h2------------2-0-2-------2---0h2--------------
a---------2------------------------------2----1/2-2-1/2-2--
E----------------------------------------------------------


e----------------------------------------------------------
b----------------------------------------------------------
g----------------1----------2---2h4-1-----------1----------
d-------------------2---0h2------------2-0-2-------2---0h2-
a--1/2-2-1/2-2---------2------------------------------2----
E----------------------------------------------------------


e-------------------------------
b-------------------------------
g-------------------------------
d-------------------------------
a---2---0-----------------------
E---------2b---0----------------
 Comments (click here to add a non-facebook comment)
i submitted the intro, and now its gone and this one is here. wtf is that?
-Ryansm | 8/4/2008
This is really good. Its fun to play also. Good job. I enjoyed it.
-laurren | 9/11/2008
Home | FAQs | Privacy | Terms | Advertise | Contact
Top 100 Tab Sites