Give Kudos?
Are you sure you want to give kudos to jbelanger2002?

Add To Songbook?
Are you sure you want to add this song to your songbook?


2,635 bands | 34,497 songs
Search: Register FREE! | Login
Browse Songs:
Browse Bands:
Tool Panel
Discuss This Song

1 2 3 4 5





Luke Bryan - Country Man (Intro)
Album: I'll Stay Me (2007)
Submitter: jbelanger2002 (0) on 9/15/08
Month Views: 18 | Total Views: 5,283
Moderator: Ray Terry | Report This Song?
Song Tools

Comment

Songbook

Kudos

Show Chords

Print

e-------------------------------------
B-------------------------------------
G-------------------------------------
D---5b6--2-----2----7--9--5b6---------
A----------2-4-----------------7-5-7--
E-0-----------------------------------

e-------------------------------------
B-------------------------------------
G-------------------------------------
D---5b6--2-----2----1s2--1s2--1s2-0---
A----------2-4------------------------
E-0---------------------------------3-

e-------------------------------------
B-------------------------------------
G-------------------------------------
D---5b6--2-----2----7--9--5b6---------
A----------2-4-----------------7-5-7--
E-0-----------------------------------

e-------------------------------------
B-------------------------------------
G-------------------------------------
D---5b6--2-----2----1s2-0-------------
A----------2-4------------------------
E-0-----------------------3-----------
 Comments (click here to add a non-facebook comment)
Home | FAQs | Privacy | Terms | Advertise | Contact
Top 100 Tab Sites