Give Kudos?
Are you sure you want to give kudos to mackseward2318?

Add To Songbook?
Are you sure you want to add this song to your songbook?


2,635 bands | 34,497 songs
Search: Register FREE! | Login
Browse Songs:
Browse Bands:
Tool Panel
Discuss This Song

1 2 3 4 5





Luke Bryan - Country Man (Tab)
Album: I'll Stay Me (2007)
Submitter: mackseward2318 (9) on 8/8/13
Month Views: 72 | Total Views: 4,381
Moderator: Ray Terry | Report This Song?
Song Tools

Comment

Songbook

Kudos

Show Chords

Print

Capo 2nd Fret
Drop D tuning

E|----------------------------------------------------
B|----------------------------------------------------
G|-----------------0--0--2----------------------------
D|--3--0--------0-----------3--0-----0----------------
A|--------0--3--------------------3-------------------
E|----------------------------------------------------
					

E|-----------------------------------------------------
B|-----------------------------------------------------
G|-----------------1-2--2--1-2--2--1-2--2--0-----------
D|--3--0--------0--1/2--2--1/2--2--1/2--2--0-----------
A|--------0--3--------------------------------3--2--0--
E|--------------------------------------------3--2--0--

E|-----------------3--3--------------------------------
B|-----------------0--0--------------------------------
G|-----------------0--0--2-----------------------------
D|--3--0--------0--0--0-----3--0-----0-----------------
A|--------0--3-----5--5-----------3--------------------
E|-----------------5--5--------------------------------


E|------------------------------------------------------
B|------------------------------------------------------
G|-----------------2------------------------------------
D|--3--0--------0--2------------------------------------
A|--------0--3-----0--3--2--0---------------------------
E|--------------------3--2--0---------------------------
				
 Comments (click here to add a non-facebook comment)
Home | FAQs | Privacy | Terms | Advertise | Contact
Top 100 Tab Sites