Give Kudos?
Are you sure you want to give kudos to vukev?

Add To Songbook?
Are you sure you want to add this song to your songbook?


2,635 bands | 34,497 songs
Search: Register FREE! | Login
Browse Songs:
Browse Bands:
Tool Panel
Discuss This Song

1 2 3 4 5





Luke Bryan - Drunk On You (Solo)
Album: Tailgates & Tanlines (2011)
Submitter: vukev (5) on 6/21/12
Month Views: 34 | Total Views: 10,118
Moderator: Ray Terry | Report This Song?
Song Tools

Comment

Songbook

Kudos

Show Chords

Print

Luke Bryan-Drunk on You
Guitar Solo

Key:
h  - hammer on
p  - pull off
b  - bend
bh - bend and hold
r  - release
~  - vibrato
/  - slide up to note
\  - slide down from note

e----------------------------------------------------------------------12-------------------12--12----\------
B--10----10------------------------------------------------10--12bh(14)---(14)r-10--12bh(14)----(14)~~\------
G--9h11--9h11--9--7--\6--7p6------------------------9--11----------------------------------------------------
D----------------------------7--------------7--9/11----------------------------------------------------------
A------------------------------7\----/5h7/9------------------------------------------------------------------
E------------------------------------------------------------------------------------------------------------

e--10-----10-----10------------------------------------------------------------------------------------------
B--10h12--10h12--10-------10---------------------------------------------------------------------------------
G--------------------9/11-------------------9----------------------------------------------------------------
D----------------------------12-11---------------------------------------------------------------------------
A--------------------------------------/11-------------------------------------------------------------------
E------------------------------------------------------------------------------------------------------------
 Comments (click here to add a non-facebook comment)
Home | FAQs | Privacy | Terms | Advertise | Contact
Top 100 Tab Sites