Give Kudos?
Are you sure you want to give kudos to RainbowDash?

Add To Songbook?
Are you sure you want to add this song to your songbook?


2,636 bands | 34,516 songs
Search: Register FREE! | Login
Browse Songs:
Browse Bands:
Tool Panel
Discuss This Song

1 2 3 4 5





Luke Bryan - Kiss Tomorrow Goodbye Intro (Intro)
Album: Tailgates & Tanlines (2011)
Submitter: RainbowDash (1) on 11/22/12
Month Views: 13 | Total Views: 2,703
Moderator: Ray Terry | Report This Song?
Song Tools

Comment

Songbook

Kudos

Show Chords

Print

e|----------------------------------|
B|-1---1---1----3---1---------------|
G|----------------------------------|
D|-2---2---2----2---2---------------|
A|-3---3---3----3---3---------------|ai
E|----------------------------------|ss

   Em

e|----------------------------------|
B|-----------------1----------------|
G|----------------------------------|
D|-2-----2----2----2----2-----------|
A|-2-----2----2----2----2-----------|
E|----------------------------------|ss

   D

e|---2-----5--3--3--2--0------------|
B|---3-------------------3----------|
G|---2------------------------------|
D|----------------------------------|
A|----------------------------------|
E|----------------------------------|ss
 Comments (click here to add a non-facebook comment)
Home | FAQs | Privacy | Terms | Advertise | Contact
Top 100 Tab Sites