Give Kudos?
Are you sure you want to give kudos to hargie12?

Add To Songbook?
Are you sure you want to add this song to your songbook?


2,636 bands | 34,517 songs
Search: Register FREE! | Login
Browse Songs:
Browse Bands:
Tool Panel
Discuss This Song

1 2 3 4 5





Luke Bryan - Kiss Tomorrow Goodbye (Lead)
Album: Tailgates & Tanlines (2011)
Submitter: hargie12 (1) on 1/9/13
Month Views: 40 | Total Views: 5,511
Moderator: Ray Terry | Report This Song?
Song Tools

Comment

Songbook

Kudos

Show Chords

Print

Here is my take on the minimal lead work and solo off the CD. 
I think it's pretty close and this is what I play on stage. 
Hope you enjoy the tab. If you have any questions feel free 
to message me. Feel free to rate or comment as well.

Good Luck,
Hank Hargis




1:06

E--------------------------
A-4--4-4--6-4--3-3-3-4-3-1-
D--------------------------
G-6--6-6--8-6--5-5-5-6-5-3-
B--------------------------
e--------------------------


1:20

Looks more complicated than it is, I promise.

E---------------------------------------------------------------
A------------------8h10po8slide6-8slide10-----------------------
D----------8h10po8-8-----------------------8slide6--------------
G--8h10po8-8--------------------------------8slide6-------------
B--8---------------------------------------let ring together----
e---------------------------------------------------------------

2:05

E-13------13------13-------13--------13~------------------------
A----17b-----17b------17b------17b------------------------------
D---------------------------------------------------------------
G---------------------------------------------------------------
B---------------------------------------------------------------
e---------------------------------------------------------------


E---------------------------------------------------------------
A----------------------------------10-8slide6-8slide10----------
D----------------------10--8h10po8------------------------------
G-10b---8------8h10po8-----8----------------------------8-------
B--8----8------8----------------------------------------8-------
e---------------------------------------------------------------

E---------------------------------------------------------------
A-6-6-6s-8---8---8s--10--10--10s-11-11-11s-13-13-13s-15---------
D---------------------------------------------------------hold--
G-8-8-8s10--10--10s--12--12--12s-13-13-13s-15-15-15s-17---------
B---------------------------------------------------------------
e---------------------------------------------------------------


E---------------------------------------------------------------
A-15-15-16-15-13-15-13-11-13-11-10------------------------------
D---------------------------------------------------------------
G-17-17-18-17-15-17-15-13-15-13-12------------------------------
B---------------------------------------------------------------
e---------------------------------------------------------------
 Comments (click here to add a non-facebook comment)
Home | FAQs | Privacy | Terms | Advertise | Contact
Top 100 Tab Sites