Give Kudos?
Are you sure you want to give kudos to rune?

Add To Songbook?
Are you sure you want to add this song to your songbook?


2,722 bands | 35,147 songs
Search: Register FREE! | Login
Browse Songs:
Browse Bands:
Tool Panel
Discuss This Song

1 2 3 4 5



Luke Olson - When I Look At You (Tab)
Submitter: rune (3) on 4/27/06
Month Views: 4 | Total Views: 3,520
Help! We need a moderator for this artist. | Report This Song?
Song Tools

Comment

Songbook

Kudos

Show Chords

Print

Luke Olson - When I look at You

This song has a wonderful and extremly complicated picking
Good luck
If you know the exact lyrics, please let me know

Capo 1
 D           F          C                   
----3p2---------1------------------------------------
--3----3------1---1--------1h3--0----0---------------
---2----0h2p0--2-------0-0-----0-0------------0h2p0--
-0--0--------3---3--0h3---2---------------0--2-------
------------------------3-----------2--0h2--3--------
-----------------------------------------------------

 D            F          C                         D
----3p2----------1------------------------------------2---
--3----3-------1---1--------1h3--0---0--------------3-----
---2----0h2p0---2-------0-0-----0-0-----------0h2p0--2----
-0------------3---3--0h3---2--------------0--2-----0---0--
-------------------------3----------2--0h2--3-------------
----------------------------------------------------------

             F             C  G/B  C
I wish that I had more to say
        D                     F                  C   G/B   C
Than hello, it's good to see you and have a nice day
D            F                      C  G/B  C
I guess the words just can't come out
D               F                      C  G/B  C
And I hope you know what I'm talking about


Chorus
G        G/B         C
When I look at you I say
          D            G/B
I can't believe that matter
G          G/B          C
When you looked at me today
         D        G/B  G  G C
It made me feel better


F              C            G   G C
And I don't want to try to hard
F                    C                             G  G G/B C  
And I don't want to loose you when or wherever we are


Solo (Similar to intro)


Like a cold and windy night
You're like the sun that gives me light
You have a beauty I can see
Is there anything inside of there for me

 
 Comments (click here to add a non-facebook comment)
Home | FAQs | Privacy | Terms | Advertise | Contact
Top 100 Tab Sites