Give Kudos?
Are you sure you want to give kudos to zunie?

Add To Songbook?
Are you sure you want to add this song to your songbook?


3,308 bands | 38,106 songs
Search: Register FREE! | Login
Browse Songs:
Browse Bands:
Tool Panel
Discuss This Song

1 2 3 4 5



Martina McBride - Heart Trouble (Solo)
Album: Collector's Edition (2008)
Submitter: zunie (2) on 4/6/07
Month Views: 699 | Total Views: 4,104
Sound Byte: Listen
Moderator: Ray Terry | Report This Song?
Song Tools

Comment

Songbook

Kudos

Show Chords

Print

E-7-7-7---7-7-7-7-----------------------------------------------------
B-8-8-8---8-8-8-8---10--10-10~~--7------------------------------------
G--9---9-9-9---9----9---9--8p-7--7--7-5h6p5---------------------------
D---------------------7~~~~~~--7------------7-5-4---4-----------------
A-------------------------------------------------7---7-5-4-----------
E---------------------------------------------------------------------

E------------------------------------------------------12--16--12-----
B------------------------------5-----7-------12-14B(15)--14--14--14-12
G----------------------------4--6/9b--9/12/13-------------------------
D--------7-9-7-5-------4-5-6------------------------------------------
A----7/9--9-9-9-7-5-7~------------------------------------------------
E-5/9-----------------------------------------------------------------

E---------------------------------------------------------------------
B-10-12-10------------------------------------------------------------
G----------9-12~------------------------------------------------------
D---------------------------------------------------------------------
A---------------------------------------------------------------------
E---------------------------------------------------------------------
 Comments (click here to add a non-facebook comment)
Home | FAQs | Privacy | Terms | Advertise | Contact
Top 100 Tab Sites