Give Kudos?
Are you sure you want to give kudos to Niki?

Add To Songbook?
Are you sure you want to add this song to your songbook?


3,301 bands | 38,081 songs
Search: Register FREE! | Login
Browse Songs:
Browse Bands:
Tool Panel
Discuss This Song

1 2 3 4 5



Marty Robbins - No Tears Milady (Intro)
Album: Country (1960-1966) (1995)
Submitter: Niki (0) on 2/10/15
Month Views: 539 | Total Views: 2,472
Moderator: rdgrubbs | Report This Song?
Song Tools

Comment

Songbook

Kudos

Show Chords

Print

                 Author/Artist: Marty Robbins 
                    Title: No Tears Milady



             Bb                      F                       C7
-13-12-11-10-10-9--10-13-13-13-12-10-------------12-12-12-10------------------
-10-11-13-11-11-10-11-15-15-15-13-11-13-13-12-13-13-13-13-11-13-11-10-11------
-------------------------------------14-14-13-14-------------14-12-11-12------
------------------------------------------------------------------------------
------------------------------------------------------------------------------
------------------------------------------------------------------------------
                                                                              
                         F
-10-10-10-12-12-12-12-12-13----10-12-13---------------------------------------
-11-11-11-11-11-11-11-11----13----------10-11-12-13-x-------------------------
------------------------------------------------------x-9/10-13/14-10---------
------------------------------------------------------------------------------
------------------------------------------------------------------------------
------------------------------------------------------------------------------
 Comments (click here to add a non-facebook comment)
Home | FAQs | Privacy | Terms | Advertise | Contact
Top 100 Tab Sites