Give Kudos?
Are you sure you want to give kudos to axehappy?

Add To Songbook?
Are you sure you want to add this song to your songbook?


2,722 bands | 35,147 songs
Search: Register FREE! | Login
Browse Songs:
Browse Bands:
Tool Panel
Discuss This Song

1 2 3 4 5



McBride & the Ride - Going Out Of My Mind (Chord)
Album: Sacred Ground (1992)
Submitter: axehappy (22) on 1/4/02 1 comment
Month Views: 4 | Total Views: 6,328
Moderator: falgorn | Report This Song?
Song Tools

Comment

Songbook

Kudos

Show Chords

Print

McBride and the Ride - Going Out Of My Mind

By axehappy - axehappyuk at yahoo.co.uk


G     =   320003          Em     =   022000

Bm    =   x24432          D      =   xx0232

Bm7   =   x24232          C      =   x32010      

Dsus  =   xx0233          Dadd9  =   xx0230

F#m   =   244222          E      =   022100

A     =   x02220         

***********************************************************************


G   Em   G   Em
INTRO


Verse 1
--------

        G             Em          Bm
Oh, the light in your eyes is not shining,
    D                  G
The way it used to and I
         Em      Bm7    D
Feel our love is dying.
C             G          C                G
After all the years, the laughter and the tears,
C                 Em               D
Baby please don't tell me that its over.


Chorus
-------

C       Em        D
I can't stand the thought of you
                C       Em     D
(Going out of my mind) 
                I can't see me without you.
           C       Em        D
(Here in my mind)
           I can't stand the thought of you,
                C
Going out of my mind.
                G
Going out of my mind.


Verse 2
--------

      G          Em                Bm
Oh, I can't understand what you're doing,
     D           G
It's tearing us apart.
         Em                Bm        D
'Cause I think that you're leaving.
C                 G
I can't stand the pain 
      C           G
Never loving you again.
C                  Em                D
Baby, please don't tell me that it's over.


Chorus
-------

C       Em        D
I can't stand the thought of you.
                C       Em     D
(Going out of my mind)
                I can't see me without you.
           C       Em        D
(Here in my mind)
           I can't stand the thought of you. 
                C
Going out of my mind.
                G    
Going out of my mind.


Bridge
-------

C                    G
Tell me, tell me I'm crazy.
Em                   Dsus  D
Tell me, tell me I'm wrong.


Chorus
-------

Dadd9   F#m       E 
I can't stand the thought of you.
                Dadd9   F#m    E
(Going out of my mind)
                I can't see me without you.
           Dadd9   F#m       E 
(Here in my mind)
           I can't stand the thought of you. 
                D
Going out of my mind.
                Bm   
Going out of my mind.
                A     F#m   D       A
Going out of my mind.


***********************************************************************

Picking pattern for Verse 1
~~~~~~~~~~~~~~~~~~~~~~~~~~~~

   G        Em       Bm       D 
E-----------------------2--2-----0h2------
B-----3--3-----0--0----3--3-----3---3-----
G----0--0-----0--0----4--4-----2-----2-2--
D---0--0-----2--2-------------0-------0---
A--------------------2--------------------
E--3--------0-----------------------------


   G        Em       Bm7      D
E-----------------------0--0-----0h2------
B-----3--3-----0--0----3--3-----3---3-----
G----0--0-----0--0-------------2-----2-2--
D---0--0-----2--2-----4--4----0-------0---
A--------------------2--------------------
E--3--------0-----------------------------


   C        G        C        G
E--------------------------------------
B-----1--1-----3--3-----1--1-----3--3--
G----0--0-----0--0-----0--0-----0--0---
D---2--2-----0--0-----2--2-----0--0----
A--3-----------------3-----------------
E-----------3-----------------3--------


   C        Em       D
E-----------------------2-------0h2------
B-----1--1-----0--0----3-3-3---3---3-----
G----0--0-----0--0----2---2---2-----2-2--
D---2--2-----2--2----0-------0-------0---
A--3-------------------------------------
E-----------0---------------------------- 
 Comments (click here to add a non-facebook comment)
Great job on this one, Axe!!
-lmofle | 12/21/2004
Home | FAQs | Privacy | Terms | Advertise | Contact
Top 100 Tab Sites