Give Kudos?
Are you sure you want to give kudos to bs0459?

Add To Songbook?
Are you sure you want to add this song to your songbook?


2,722 bands | 35,147 songs
Search: Register FREE! | Login
Browse Songs:
Browse Bands:
Tool Panel
Discuss This Song

1 2 3 4 5



Micky & The Motorcars - Careless (Lead)
Album: Careless (2006)
Submitter: bs0459 (0) on 2/9/13
Month Views: 3 | Total Views: 2,731
Moderator: rab05 | Report This Song?
Song Tools

Comment

Songbook

Kudos

Show Chords

Print

This is how I play the intro/lead, without solo
First verse and chorus are octaves
Didn't count how many times to hit each one, just drone away then slide into the next one

--------------------------------------------------------------------
-----6--------------------------------8-------------6----------10---
-----X--------------------------------x-------------x----------7----
-----3--------------------------------5-------------3----------0----
--------------------------------------------------------------------
--------------------------------------------------------------------
	 I don't blame.....better off someday, if I had.....to say

---------------------------------------------
-----8-----------11------------------13------
-----x-----------x-------------------x-------
-----5-----------8-------------------10------
---------------------------------------------
---------------------------------------------
...  think by now I would have found a way 	


Chorus
--------------------------------------------------------------------
----11----6-----10----11----13-----11----10----8------------6-------
----x-----x-----7-----x-----x------x-----7-----x------------x-------
----8-----3-----0-----8-----10-----8-----0-----5------------3-------
--------------------------------------------------------------------
--------------------------------------------------------------------

2nd verse start picking barre chords or just use power chords

   Dm     F       Dm     C      Bb      Dm     Gm     Bb      C
---5--------------5------8------6-------5------3------6-------8------
---6------10------6------8------6-------6------3------6-------8------
---7------10------7------9------7-------7------3------7-------9------
---7------10------7------10-----8-------7------5------8-------10-----
---5------8-------5------10-----8-------5------5------8-------10-----
-------------------------8------6--------------3------6-------8------

Chorus
Bb F Dm Bb C     Bb Dm Gm C F


Bridge
Dm Bb F       Gm Bb C


3rd Chorus
palm mute Bb F Dm Bb C 
then strum Bb Dm Gm C Dm Gm C F

outro solo (I'll add it when I figure it out)

 Comments (click here to add a non-facebook comment)
Home | FAQs | Privacy | Terms | Advertise | Contact
Top 100 Tab Sites