Give Kudos?
Are you sure you want to give kudos to pickerfromWACO?

Add To Songbook?
Are you sure you want to add this song to your songbook?


2,732 bands | 35,202 songs
Search: Register FREE! | Login
Browse Songs:
Browse Bands:
Tool Panel
Discuss This Song

1 2 3 4 5



Mike McClure - Open My Door (Lead)
Album: Everything Upside Down (2004)
Submitter: pickerfromWACO (0) on 8/14/05 1 comment
Month Views: 1 | Total Views: 2,695
Moderator: aggiekelton | Report This Song?
Song Tools

Comment

Songbook

Kudos

Show Chords

Print

Here it is, have fun. I tabbed it on an acoustic
but its correct except i might have missed a slide
or something. If anybody's got suggestions, kick
em this way.

e-----------------------------------------------------
b-----------------------------------------------------
g-9------------------------------9--------------------
d---11-9-----------------9---------11-9----------9----
a---------12-11-12-11-12---12-11--------12-11-12---11-
E-----------------------------------------------------

e-----------------------------------------------------
b-----------------------------------------------------
g-9------------------------------9--------------------
d---11-9-----------------9---------11-9----------9----
a---------12-11-12-11-12---12-11--------12-11-12---11-
E-----------------------------------------------------

e---------------------------------------------------------------------
b--------------------------9------------------------------------------
g---------------------9-11---11-9-------------------------------9--9--
d--------9-11-9----11--------------------9-11-9-----------------9--9--
a-/11-12--------------------------/11-12--------12-11-11h12-11~-7--7--
E---------------------------------------------------------------------

e-------------------------------------------------------------------
b-------------------------9-----------------------------------------
g--------------------9-11---11-9------------------------------9--9--
d-------9-11-9----11-------------------9-11-9-----------------9--9--
a-11-12--------------------------11-12--------12-11-11h12-11~-7--7--
E-------------------------------------------------------------------

                  echoed notes, not necessarily a guitar
e-12--------------(12)----------------------(12)--------------------------
b----15-12-------------(15)-(12)-----------------(15)-(12)----------------
g----------14-12-----------------(14)-(12)-----------------(14)-(12)--(9)-
d-------------------------------------------------------------------------
a-------------------------------------------------------------------------
E-------------------------------------------------------------------------
 Comments (click here to add a non-facebook comment)
thanks for the tab man, sounds pretty much dead on to me.
-treybarbee | 8/15/2005
Home | FAQs | Privacy | Terms | Advertise | Contact
Top 100 Tab Sites