Give Kudos?
Are you sure you want to give kudos to Deleted Member?

Add To Songbook?
Are you sure you want to add this song to your songbook?


2,729 bands | 35,173 songs
Search: Register FREE! | Login
Browse Songs:
Browse Bands:
Tool Panel
Discuss This Song

1 2 3 4 5



Mindy McCready - A Girls Gotta Do (Lead)
Album: Ten Thousand Angels (1996)
Submitter: Deleted Member (0) on 1/23/02
Month Views: 2 | Total Views: 2,448
Moderator: Ray Terry | Report This Song?
Song Tools

Comment

Songbook

Kudos

Show Chords

Print

This is accurate until noted at the end where it says "Hold bend"...that's my
own version. The end of the solo is really fast but what I do is close.

 Solo                                                                   
E---|------------------------------------------------------4-----7-----7--11--
B---|---------------------------------7------7--------4/5-----9-----7---------
G---|------------------------4--3--6-----6^-----6^\4--------------------------
D---|--------------2------4---------------------------------------------------
A---|-----------2-----4^------------------------------------------------------
E---|--12\0--4----------------------------------------------------------------
                                                                        

(hold bend - this is how "I" play this END part...recording is different)
E---|--9--11^--11--11--11--11--11--11--11--11p9------------------
B---|--------------------------------------------11p9------------
G---|--------------------------------------------------8---------
D---|------------------------------------------------------------
A---|------------------------------------------------------------
E---|------------------------------------------------------------
                                                                 

 Comments (click here to add a non-facebook comment)
Home | FAQs | Privacy | Terms | Advertise | Contact
Top 100 Tab Sites