Give Kudos?
Are you sure you want to give kudos to axehappy?

Add To Songbook?
Are you sure you want to add this song to your songbook?


2,726 bands | 35,161 songs
Search: Register FREE! | Login
Browse Songs:
Browse Bands:
Tool Panel
Discuss This Song

1 2 3 4 5



Mindy McCready - Guys Do It All The Time (Lead)
Album: Ten Thousand Angels (1996)
Submitter: axehappy (46) on 1/21/02
Month Views: 17 | Total Views: 5,867
Moderator: Ray Terry | Report This Song?
Song Tools

Comment

Songbook

Kudos

Show Chords

Print

Mindy McCready - Guys Do It All The Time (lead solo)

By axehappy - axehappy at countrytabs.com

***********************************************************************

pbr   =   pre-bend & release         b   =   bend

x     =   dead note                  br  =   bend & release

\     =   slide down                 /   =   slide up

p     =   pulloff

***********************************************************************

INTRO  (play through all then repeat part after colons)


E------:---------------------------------------|
B------:---------------------------------------|
G------:----------3p0-5--------------5p0-3-----|
D--10\-:----1b-3/5---5-3/5----1b-3/5----5-3/5--|
A--10\-:-3-3--3------------3-3--3--------------|
E------:---------------------------------------





LEAD SOLO


E--------8-x---8-x---8-x--------------------------------------
B--------8-x---8-x---8-x-10pbr-----10brbr---------------------
G--10pbrb---10b---10b----10pbr-8b--10brbr-8b------------------
D--------------------------------10---------10-8--------8/10--
A-----------------------------------------------10\8-6--------
E------------------------------------------------------8------


E--x---8-x---8-x-11br-8-----------------------------------------------|
B--x---8-x---8-x-10br-8-10br-8----------------------------------------|
G---10b---10b-----------10br-8--------10------------------------------|
D-----------------------------10-11-12--11p10p8--10--8-9--------------|
A----------------------------------------------10--10---10-0-9-8------|
E---------------------------------------------------------------11b-8-|
 Comments (click here to add a non-facebook comment)
Home | FAQs | Privacy | Terms | Advertise | Contact
Top 100 Tab Sites