Give Kudos?
Are you sure you want to give kudos to bwbucs23?

Add To Songbook?
Are you sure you want to add this song to your songbook?


2,630 bands | 34,428 songs
Search: Register FREE! | Login
Browse Songs:
Browse Bands:
Tool Panel
Discuss This Song

1 2 3 4 5





Miranda Lambert - Greyhound Bound For Nowhere (Tab)
Album: Kerosene (2005)
Submitter: bwbucs23 (1) on 4/9/05 1 comment
Month Views: 33 | Total Views: 6,568
Moderator: jhempel24 | Report This Song?
Song Tools

Comment

Songbook

Kudos

Show Chords

Print

Miranda Lambert – Greyhound Bound For Nowhere - Kerosine

Hey y’all, hope this helps. This may not be note for note, but I’ve played
along with her and it sounds good.  Note: when the notes lead back down to the
hammer-ons  after being high they are sometimes left out or played very
softly.  Just letting you know so you could get the feel for it.

(intro)

E ---------------------------------------------------------------------0-------------------------------
B -------3-------------3-------------3-------------3-----3---------------3------------3--------------3
G ----2----2-------2-----2-------0-----0-------0----0--2----------2--------2------2-----2--------0--
D -0---------0--------------0--------------0-------------------0--------------------------0----------
A ---------------3-------------2--------------1------------------------------0h3-------------0h2----
E -------------------------------------------------------------------------------------------------------

E ------------------------------
B --------------3--------------
G --0--------0---0------------
D ----0-------------0----------   (Repeat for the beginning of the first verse)
A -------0h1------------------
E ------------------------------

When the song says: “the old man sitting….” Play this.

E ------0--------------2------------2-------3----------2-------0-----------2-------
B ------2------------- 2------------3-------3----------3-------2-----------3-------
G ------2---------3--- 3---------4--4-------0------2-- 2-------2--------2--2-------
D ----2---------4-------------4----------0-------0------------2-------0--------------
A --0-------------------------------------------------------0-------------------------
E ---------------------------------------3---------------------------------------------

Then on the chorus I just strum with an occasional picked bass note. 

Hope this helps.

Tabbed by: Seth 
 Comments (click here to add a non-facebook comment)
nice tab but could you get an mp3 up?
-anwilliford | 4/9/2005
Home | FAQs | Privacy | Terms | Advertise | Contact
Top 100 Tab Sites