Give Kudos?
Are you sure you want to give kudos to bowlingdude2000?

Add To Songbook?
Are you sure you want to add this song to your songbook?


2,831 bands | 36,024 songs
Search: Register FREE! | Login
Browse Songs:
Browse Bands:
Tool Panel
Discuss This Song

1 2 3 4 5



Nickel Creek - Robin And Marian (first Half For Mandolin) (Chord)
Album: Nickel Creek (2000)
Submitter: bowlingdude2000 (1) on 4/12/04 13 comments
Month Views: 106 | Total Views: 16,158
Moderator: p8nter21 | Report This Song?
Song Tools

Comment

Songbook

Kudos

Show Chords

Print

This is by far one of my all time favorate songs by Nickel Creek.  Because the
time in the intro to this song is so crazy I've added in the time signatures. 
I'm working on the rest of the song, and i know that this isn't perfect.

  3/4        4/4          4/4          2/4    4/4
E| ---------|--0--0320---|--------0---|--04--|------------|-
A|.--0320-02|-2--2----502|3--3--35-532|-2--23|0---------23|-
D|.-2----5--|2--2--------|-52-52------|6-----|-2302----5--|-
G| 2--------|------------|------------|------|-----5420---|-

  4/4
E|------------- || --------2-27(0555357530--)(0888781087--)-
A|-0-----------.||.--2-25-2-5--(------------)(----------10)-
D|--2302-------.||.-2-5--4-----(------------)(------------)-
G|------54202-0 || 4-----------(------------)(------------)-
     repeat, then...           (harmony 1   )(harmony 2   )

E|---------2-27|--8--3--5--5|--8--3--2--0 ||---------|------
A|---2-25-2-5--|-7--2--3--3-|-7--2--0--2-.||--0320-02|------
D|--2-5--4-----|7--5--3--3--|7--5--0--2--.||-2----5--|------
G|-4-----------|------------|------------ ||2--------|------
                                    repeat, then...

E|--0320---|-----0-----04--|------------|------------|------
A|-2----502|3--35-532-2--23|0---------23|0-----------|------
D|2--------|-52------6-----|-2302----5--|-2302-------|------
G|---------|---------------|-----5420---|-----54202--|------
                                                  hold

E|-| ---0--------|------------|---0--------|------------ |--
A|-|.-04-5420----|--25420-----|-04-5420----|--25420-----.|--
D|0|.2-------6245|-5-----42024|2-------6245|-5-----42024.|--
G|-| ------------|0-----------|------------|0----------- |--
                                                   repeat
                 (3)
E|--45420-----|-------------|--45420-----|--------7--|-0-|--
A|-0-----54-24|5-55542------|-0-----54-24|5-555-42---|-0-|--
D|0--------6--|-------762---|0--------6--|-----------|-2-|--
G|------------|-------------|------------|-----------|-2-|--
                                          back to beginning


     That's all i got for now.  Comment me on it.  
 Comments (click here to add a non-facebook comment)
Wow this tab is the bomb diggity. It may only be half, but I already feel like u have done more than enough. This is amazing stuff, thx. Seems exact
-scuta | 4/13/2004
very nice one
-bizzyb | 11/5/2004
seriously impressive
-niczippy | 11/21/2004
have you finished the song yet?
-bizzyb | 12/12/2004
Nice....I'm dying to see the rest!
-mandolinquent | 2/16/2005
Great job. you must have a ears like a bat. It seems like every note is there!
-vaughnba | 3/25/2005
Impressive. Can't wait to get the rest. Please don't give up on it.
-griffithal | 5/3/2005
Hey guys its me, the guy who did the tab, thanks for all your complements and sorry i havent posted the rest. I'll make it my next project
-bowlingdude2000 | 5/22/2005
excellent excellent excellent...can't wait to see the rest O_-
-tyranus | 7/14/2005
I have 2 corrections to this tab.
1st it written in 9/8 ans 12/8,
and the second correction is as follows:
E -----------------2---2-7-|-0-0-8-8-7-8-10-8-7------0-|
A -----2---2-5-2-5---5-----|-0------------------10-----|
D ---2---5-----------------|---------------------------|
G -4-----------------------|---------------------------|

E -----------------2---2-7-|-----8-----3-----5-------|
A -----2---2-5-2-5---5-----|---7-----2-----3---3---5-|
D ---2---5-----------------|-7-----2-----3-------3---|
G -4-----------------------|-------------------------|

E -----8-----3-----2-----0-|
A ---7-----2-----0-----0---|
D -7-----2-----0-----0-----|
G -------------------------|

otherwise, excellent job.
-Focusdude | 8/3/2005
This is the sweetest tab on the whole site!
When do we get the next half? You shoould tab other Nickel Creek Songs.
Thanks
-Sweetjoe | 9/18/2005
Nice tab I can't wait to see the rest
-griffithal | 11/7/2005
This is a SUPER GREAT tab!! It sounds perfect! PLEASE, finish writing it!!

GSB
-gsb | 12/10/2008
Home | FAQs | Privacy | Terms | Advertise | Contact
Top 100 Tab Sites