Give Kudos?
Are you sure you want to give kudos to RagweedisNo.1?

Add To Songbook?
Are you sure you want to add this song to your songbook?


2,733 bands | 35,224 songs
Search: Register FREE! | Login
Browse Songs:
Browse Bands:
Tool Panel
Discuss This Song

1 2 3 4 5



Original Artist - Amazing Grace (blues Gospel Style) (Tab)
Submitter: RagweedisNo.1 (1) on 2/12/03
Month Views: 8 | Total Views: 16,661
Moderator: fowler0531 | Report This Song?
Song Tools

Comment

Songbook

Kudos

Show Chords

Print

Title: Amazing Grace
Artist: Original

Standard Tuning

Play this song in a Gospel Blues style

e---------------------------------
B---------------------------------
G-------5-7(b)5/9\7\5-------------
D--5--7---------------7\5---------
A---------------------------------
E---------------------------------


e---------------------------------
B---------------------------------
G-------5-7(b)5/9/12--14p12\9/12\5
D--5--7---------------------------
A---------------------------------
E---------------------------------


e---------------------------------
B---------------------------------
G-----------------5--7(b)5/9\7\5--
D--7\5-------5--7-----------------
A--------7\5----------------------
E---------------------------------

Using this same progression, you can play
anywhere on the fretboard. Add vibratos
and other bends where you wish.
Have Fun!

Your comments are welcome.  Just drop a line.
 Comments (click here to add a non-facebook comment)
Home | FAQs | Privacy | Terms | Advertise | Contact
Top 100 Tab Sites