Give Kudos?
Are you sure you want to give kudos to dbeaverboner?

Add To Songbook?
Are you sure you want to add this song to your songbook?


2,976 bands | 36,759 songs
Search: Register FREE! | Login
Browse Songs:
Browse Bands:
Tool Panel
Discuss This Song

1 2 3 4 5



Pat Green - All The Good Things Fade Away (Lead)
Submitter: dbeaverboner (1) on 2/24/04
Month Views: 153 | Total Views: 4,161
Moderator: pumaboy2005 | Report This Song?
Song Tools

Comment

Songbook

Kudos

Show Chords

Print

All The Good Things Fade Away         Pat Green

Intro
e----------------7-----7(9)7(9)-----12------------------------------------
B--5-7-7/9--------------b-r-bh-------(14)12-----9(10)-9\7-5---------------
G-4-4----------/9---------------------pbr-------bh------------------------
D-------------------------------------------------------------------2-4-2-
A---------------------------------------------------------------2-4-------
E-------------------------------------------------------------------------


Verse 1 fills
e--------------------------------------------------12---------
B------------------5----5--5--5-------12(14)12(14)-(14)12~~--
G-2---2------------4(6)(6)(6)(6)4-------b--r--b--------r------
D-2h4-4p2---2-------bh---------r------------------------------
A---------4-2-------------------------------------------------
E-(0:21)-----------(0:28)-------------(0:35)------------------


Verse 2 fills
e---------------7---------7-----------------------------------
B-5-5-----5------7(9)7(9)--(9)7-5-----2-2-3-3-3-2-------------
G-6-6p4---6-------b-r-b------r--------2-2-2-2-2-2-------------
D-------6-----------------------------2-2---------------------
A-------------------------------------------------------------
E-(1:04)---------(1:10)---------------(1:17)------------------
 

Solo 1 (1:40)
e-------------------------------------------------------------
B---5/7---9-9-9----12--5----5--5--5---5--5----5-5-5-----------
G-4--------------------8(9)(9)(9)(9)8-6-8(9)-8-6-4---fiddle--
D-------/9-9-99/13-----bh---------r------b-------------------
A-------------------------------------------------------------
E-------------------------------------------------------------

e-17------17----16------16----14-----14-12----12--------------
B---------------------------------------------12--------------
G-16(18)-(18)1614(15)-(15)14-13(14)-13-13(14)---13\11-9-9----
D---b-------r-----b-------r-----b---------b--------------9----
A-------------------------------------------------------------
E-------------------------------------------------------------


Solo 2 (2:52)
e------------------------------------------------------------------
B--------------------------------------------------9-99-99-7-7-7-7-
G-/9-99-99-99-99-88-66-68-99-88-66-66-6-666-66--/9-9-99-99-8-8-9-8-
D------------------------------------------------------------------
A------------------------------------------------------------------
E------------------------------------------------------------------

e----------0----------------0--------------------------------------
B-------22-2----------------0--------------------------------------
G-6-4-2-22---1-2-1----------1--------------------------------------
D------------------4-2------2--------------------------------------
A----------------------4-2-2--------------------------------------
E---------------------------0--------------------------------------
 Comments (click here to add a non-facebook comment)
Home | FAQs | Privacy | Terms | Advertise | Contact
Top 100 Tab Sites