Give Kudos?
Are you sure you want to give kudos to denalitwinkie2s?

Add To Songbook?
Are you sure you want to add this song to your songbook?


3,285 bands | 38,023 songs
Search: Register FREE! | Login
Browse Songs:
Browse Bands:
Tool Panel
Discuss This Song

1 2 3 4 5



Paul Brandt - I Do (Intro)
Submitter: denalitwinkie2s (12) on 10/12/04 3 comments
Month Views: 648 | Total Views: 8,192
Sound Byte: Listen
Moderator: brett2311 | Report This Song?
Song Tools

Comment

Songbook

Kudos

Show Chords

Print

I Do by Paul Brandt
tabbed by Logan Moore


CAPO 3!!!!


-3-----1-----0--------------------------------------------0-1------------
-1-----0-----1-----3-------------1--------------------1-3----------------
-0-----0-----2-----0--------0h2---2p0---------0--------------------------   
-2-----0-----2-----0---------------------3-------------------------------
-3-----2-----0-----2-----------------------------------------------------
-------------------------------------------------------------------------


-3-----1-----0-----------------------------------------------------------
-1-----0-----1-----3----------1--------------1---------------------------
-0-----0-----2-----0----------2--------0h2------2--2--0----------0-------
-2-----0-----2-----0----------3------------------------------3-----------
-3-----2-----0-----2-----------------------------------------------------
-------------------------------------------------------------------------
 Comments (click here to add a non-facebook comment)

-denalitwinkie2s | 10/12/2004
P E R F E C T!!!!
-WildCard76 | 2/8/2005
thank you!

-denalitwinkie2s | 2/8/2005
Home | FAQs | Privacy | Terms | Advertise | Contact
Top 100 Tab Sites