Give Kudos?
Are you sure you want to give kudos to axehappy?

Add To Songbook?
Are you sure you want to add this song to your songbook?


3,195 bands | 37,717 songs
Search: Register FREE! | Login
Browse Songs:
Browse Bands:
Tool Panel
Discuss This Song

1 2 3 4 5



Paul Brandt - I Do (Tab)
Submitter: axehappy (202) on 2/7/02 9 comments
Month Views: 546 | Total Views: 11,185
Moderator: brett2311 | Report This Song?
Song Tools

Comment

Songbook

Kudos

Show Chords

Print

Paul Brandt - I Do (picking pattern)

By axehappy - axehappy at countrytabs.com

Play with capo on 1st fret.
All notes are relative to position of capo.

The chorus is strummed, so I haven't tabbed it.

***********************************************************************

INTRO


E--2--0--------------------------2--0-----------------------|
B------2--3---2----3------2--2-------2--3----2-0---3----0---|
G---2---2----2--2h4-4p2-0---2-----2---2-----2---2h4-4p2-2---|
D--0-------4---------------2-----0--------4-------------0---|
A-----4---2--0------------0---------4---2---0-----------2---|
E---------------3------------------------------3--------3---|



VERSE


I've seen the storm clouds....
E--2---------------------------2---------------------0------
B----3------3----------2-3-2-----3-------3----------2-------
G---2-2--2h4-0-2----2h4---2-2---2-2---2h4-0-2----2h4---2----
D--0---------------2-----------0---4------------2-----2-2---
A-----------------0------0-0-------------------0-----0------
E--------3----------------------------3---------------------


I'll rescue you...
E--2--------------------------------------------------5--------
B----3-------3-------2-----2--------3-------3--------2---------
G---2-2---2h4-0-2-----2-2-2-2--4-2h4-4-0-2h4-2----2h4--2-2-0---
D--0---4------------2----4-----------------------2-------------
A------------------0----------------------------0--------------
E---------3-----------3-2------3-------------------------------


I know the questions...
E--2---------------------------2---------------------------
B----3------3----------2-3-2---3--3------3------------2----
G---2-2--2h4-0-2----2h4---2-2--2-2-2--2h4-0-2----2-2-4-2---
D--0---------------2-----------0----------------2-2--------
A-----------------0------0-0-------------------0-----------
E--------3----------------------------3--------------------


You'll find the answer's.....                       (to chorus)
E--------------------------------------------------------|
B-----------7----2------2------3-----3-0------2----0-2---|
G--4--6--7--7-7--2-2----2---2h4-0-2h4-0----2h4-2-2-------|
D---4--7--7-5-----2---4-------------------2--------0-2---|
A--2--4--5-------0-----4------------------0------5-------|
E-------------------3-2----3-----------------------------|
 Comments (click here to add a non-facebook comment)
Axehappy kicks serious ass!!!
-RUFNECK_25 | 12/1/2003
looks good man, but u sure that intro's right? sounds like it should be higher

-12375 | 1/5/2005
Did you use capo on 1st fret?
-axehappy | 1/6/2005
yeah i used a capo, i dunno maybe i just gotta give it time but i swear the high E string notes are too low, by 4 frets, anyways man, u tab pretty good, most people don't get into the finger picking the way you do, keep up the good work.

-12375 | 1/6/2005
Can't remember the song too well.. I might
have tabbed it too low!
-axehappy | 1/7/2005
I had the sheet music for it and it said capo the 3rd but this sounds good too. There are so many ways to play anything there really isnt a right and wrong. Axehappy is the man!!!
-denalitwinkie2s | 1/10/2005
I am having trouble getting the notes all together. I would appreciate a new way or a little help for the chords.

-dcwolfe | 9/20/2005
Can anyone point out the chords used..I can get down some basic stuff by ear but still find it difficult
-mattw1100 | 8/28/2008
Does anybody know the tabs or chords to this song without a capo? I don't have one and haven't been able to build one. Can anybody help me?
-CowboyCrew45 | 3/8/2009
Home | FAQs | Privacy | Terms | Advertise | Contact
Top 100 Tab Sites