Give Kudos?
Are you sure you want to give kudos to airewalker?

Add To Songbook?
Are you sure you want to add this song to your songbook?


3,195 bands | 37,717 songs
Search: Register FREE! | Login
Browse Songs:
Browse Bands:
Tool Panel
Discuss This Song

1 2 3 4 5



Paul Brandt - Small Towns Big Dreams (Intro)
Submitter: airewalker (0) on 8/4/05 1 comment
Month Views: 430 | Total Views: 5,005
Moderator: brett2311 | Report This Song?
Song Tools

Comment

Songbook

Kudos

Show Chords

Print

Title: Small Towns, Big Dreams
Artist: Paul Brandt

This is my first notebook tab guys. Im sure I'll be editing as I go.


E---/5---8--5------/5---8-8-5-10-8-------------------------------
B----------------------------------10--9---8-----8---------------
G--------------------------------------10-----8-----8------------
D----------------------------------------------------------------
A----------------------------------------------------------------
E----------------------------------------------------------------

       *slide off
E----------------------------------------------------------------
B-----------------6-8-9-----6-8-9-8-6---6------------------------
G-----8\*----7------------------------7--------------------------
D----------------------------------------------------------------
A----------------------------------------------------------------
E----------------------------------------------------------------

E----------------------------------------------------------------
B----------------------------------------------------------------
G------------------------------5-7-----7-------------------------
D-----6p5--6p5----------------6-----------6--5-------------------
A---------------8------------8-----------------------------------
E----------------------------------------------------------------

E--------------------1--------------------------------------------
B----------------1-------1----3-----------------------------------
G-----------0-----------------------------------------------------
D--------2--------------------------------------------------------
A----3------------------------------------------------------------
E-----------------------------------------------------------------
 Comments (click here to add a non-facebook comment)
excellent tab. appreciate it, i would rate it but i am not allowed to, but its a 10
-ragan8640 | 7/26/2005
Home | FAQs | Privacy | Terms | Advertise | Contact
Top 100 Tab Sites