Give Kudos?
Are you sure you want to give kudos to rune?

Add To Songbook?
Are you sure you want to add this song to your songbook?


3,284 bands | 38,017 songs
Search: Register FREE! | Login
Browse Songs:
Browse Bands:
Tool Panel
Discuss This Song

1 2 3 4 5



Paul Brandt - That's What I Love About Jesus (Intro)
Submitter: rune (26) on 3/21/06
Month Views: 543 | Total Views: 3,883
Moderator: brett2311 | Report This Song?
Song Tools

Comment

Songbook

Kudos

Show Chords

Print

           Rake
e-------------3---3p2--2p0--0---------------------------------------
B----0-1-3---0---0----0----0-3-5p3-0-------------------0-3-----3----
G-0-2-------0---0----0----0----------0------------2-0-4-----4s2-2s4-
D----------0--------------------------0--------0h2------------------
A-------------------------------------------0-2---------------------
E---------------------------------------1-3-------------------------

e----------------------1s3-----3s2---2p0------------
B--0---------------3---------0-----0-----0-3--0--3--
G-------------0h2h4---------0-----0-----0------0----
D--------0h2-4-------------0------------------------
A-----0-2-------------------------------------------
E---3-----------------3-----------------------------

e------7!---------------12!--7!--
B-----7!-------------12!-----7!--
G----7!--7!-------12!--------7!--
D---7!---------12!-----------7!--
A--7!-------12!--------------7!--
E-7!-----------------------------
 Comments (click here to add a non-facebook comment)
Home | FAQs | Privacy | Terms | Advertise | Contact
Top 100 Tab Sites