Give Kudos?
Are you sure you want to give kudos to rvacher?

Add To Songbook?
Are you sure you want to add this song to your songbook?


2,751 bands | 35,342 songs
Search: Register FREE! | Login
Browse Songs:
Browse Bands:
Tool Panel
Discuss This Song

1 2 3 4 5



Randy Houser - Boots On Silde Guitar Intro And Versres (Tab)
Submitter: rvacher (1) on 11/19/09 2 comments
Month Views: 11 | Total Views: 5,979
Moderator: Stempdog218 | Report This Song?
Song Tools

Comment

Songbook

Kudos

Show Chords

Print

This song is in Eb ( D# for the rest of us )
let's not argue about capos and all that, 
just tune your guitbox UP 1/2 step to open D# and call it a day. 
Note that in the 3rd riff the guitar player has left out the 
open D at the beginning. If this helps you then rate it high, 
if not check yourself first, then rate it. ;-)



FADE IN

D----------------|
a---3~~~---------|
f#--3~~~---------|
D----------------|
A----------------|
D----------------|

INTRO

D------------10s12----|
a------------10s12----|
f#--------------------|
D-------0-------------|
A---------------------|
D--0-3b---0-----------|

D---------------------|
a------------2s3-3-2-0|
f#--------------------|
D-------0-------------|
A---------------------|
D--0-3b---0-----------|

D------------10s12----|
a------------10s12----|
f#--------------------| 3rd riff
D-------0-------------|
A---------------------|
D----3b---0-----------|

D---------------------|
a------------2s3-3-2-0|
f#--------------------|   x 2
D-------0-------------|
A---------------------|
D--0-3b---0-----------|



Man, I've been workin too hard
Ten hour days and I'm tired


D--0----------|
a--0----------|
f#-0----------|   
D--0----------|
A-------------|
D------------|

Damn this knuckle bustin',
D--0----------|
a--0----------|
f#-0----------|   
D--0----------|
A-------------|
D------------|

back breakin', 
D-------------|
a--5----------|
f#-5----------|   
D--5----------|
A-------------|
D------------|

no paying job
D------------10s12-|
a-3s2-0-----10s12-|
f#-3s2-0-----10s12-|   
D-3s2-0-----------|
A------------------|
D-----------------|



D--0----------|
a--0----------|
f#-0----------|   
D--0----------|
A-------------|
D------------|


Know where I'm goin from here

Hot headed women, cold beer
D--0----------|
a--0----------|
f#-0----------|   
D--0----------|
A-------------|
D------------|

Kick up my heels for a little while
D-------------|
a--5--5--------|
f#-5--5--------|   
D--5--5--------|
A-------------|
D------------|

and do it country style
D-------------|
a-3s2-0------|
f#-3s2-0------|   
D-3s2-0------|
A-------------|
D------------|

[Chorus]
In my dirty 'ole hat
D--0----------|
a--0----------|
f#-0----------|   
D--0----------|
A-------------|
D------------|

with my crooked little grin
Granny beaded neck
and these calloused hands

D---------------|
a---------------|
f#--------------|   
D----8-8-10-10--|
A----8-8-10-10--|
D---8-8-10-10--|

D--0----------|
a--0----------|
f#-0----------|   
D--0----------|
A-------------|
D------------|

And a muddy pair of jeans
with that Copenhagen ring
No need to change a thing, hey y'all
D------------------|
a--5-5-------------|
f#-5-5-------------|   
D--5-5--8-8-10-10--|
A-------8-8-10-10--|
D------8-8-10-10--|

I'm going out with my boots on

INTRO

YOU GET THE IDEA
 Comments (click here to add a non-facebook comment)
Why should you retune..just drop the 6th string to d and use a capo on first fret. Some people still want to play in standard 440.
-Hatred454 | 4/11/2011
Please read introduction this is to play the slide part which is not only in drop D tuning, but tuned to D.
-rvacher | 4/11/2011
Home | FAQs | Privacy | Terms | Advertise | Contact
Top 100 Tab Sites