Give Kudos?
Are you sure you want to give kudos to alvarez?

Add To Songbook?
Are you sure you want to add this song to your songbook?


2,985 bands | 36,834 songs
Search: Register FREE! | Login
Browse Songs:
Browse Bands:
Tool Panel
Discuss This Song

1 2 3 4 5



Randy Travis - Hard Rock Bottom (Intro)
Submitter: alvarez (2) on 3/22/02 2 comments
Month Views: 206 | Total Views: 5,314
Moderator: jmarkba | Report This Song?
Song Tools

Comment

Songbook

Kudos

Show Chords

Print

Randy travis:Intro tab


   ---3/5-3-2-0-0-2-0-0-3/5-3-2-0---------------
   ------------3-----3------------3-2-3---------
   ---------------------------------------------
   ---------------------------------------------
   ---------------------------------------------
   ---------------------------------------------
 Comments (click here to add a non-facebook comment)

-denalitwinkie2s | 6/5/2004
I'm new at this but i hear it as
-3h5-5-3-2-0----0-2-------3h5-5-3-2-0
-------------3-----------------------3-2-3
----------------------------------
----------------------------------
----------------------------------
----------------------------------


-denalitwinkie2s | 6/5/2004
Home | FAQs | Privacy | Terms | Advertise | Contact
Top 100 Tab Sites