Give Kudos?
Are you sure you want to give kudos to countryboy4ever?

Add To Songbook?
Are you sure you want to add this song to your songbook?


3,284 bands | 38,006 songs
Search: Register FREE! | Login
Browse Songs:
Browse Bands:
Tool Panel
Discuss This Song

1 2 3 4 5



Rascal Flatts - Bless The Broken Road (2) (Intro)
Album: Feels Like Today (2004)
Submitter: countryboy4ever (0) on 12/25/04 4 comments
Month Views: 559 | Total Views: 12,914
Moderator: Ray Terry | Report This Song?
Song Tools

Comment

Songbook

Kudos

Show Chords

Print

Bless The Broken Road
Rascal Flatts

I looked at the other one and this is the guitar part that he plays.  He plays 
it on the intro and a couple other times throughout the song.  Just listen and 
u can hear it.  The rythm is kinda hard to get at first but its not hard at all

e--12-13-15-15-13-12----------12----13-13-12----------
b--------------------12-13-15----------------12-12h13-
g-----------------------------------------------------
d-----------------------------------------------------
a-----------------------------------------------------
E-----------------------------------------------------

Well there it is if u have any questions or comments just let me know.  This song 
is the best!!!
 Comments (click here to add a non-facebook comment)
i think its more like
e---12-13-15-15----------------------13-13-12
b-----------------15-13---13-15-17-----------13
-dustybaker | 1/18/2005
i dont really know the tab cause i cant play it
-joseph000 | 3/19/2005
Actually, that part's not a guitar at all, it's a mandolin. I've got the mando tab done, if anyone cares to see it.
-aram | 5/2/2005
hey could u post the mandolin tab? i like to get it. thanks

-willms17 | 6/7/2005
Home | FAQs | Privacy | Terms | Advertise | Contact
Top 100 Tab Sites