Give Kudos?
Are you sure you want to give kudos to denalitwinkie2s?

Add To Songbook?
Are you sure you want to add this song to your songbook?


3,284 bands | 38,006 songs
Search: Register FREE! | Login
Browse Songs:
Browse Bands:
Tool Panel
Discuss This Song

1 2 3 4 5



Rascal Flatts - Bless The Broken Road Intro (Intro)
Album: Feels Like Today (2004)
Submitter: denalitwinkie2s (11) on 2/21/05 4 comments
Month Views: 555 | Total Views: 10,749
Sound Byte: Listen
Moderator: Ray Terry | Report This Song?
Song Tools

Comment

Songbook

Kudos

Show Chords

Print

This is just a little pickin pattern i came up with after looking 
at palamin01's tab.....thank him for the chords....yell at 
me if this sucks lol.



REPEAT 2X

C            Fmaj7        G         Am            F                   G        C
--------------------------------------------------1----------1----------------------
-1-----------1------------0---------1-----------------1---------------3--------1----
----0-----------0-----------0---------0-----------------2----------------------0----
------2-----------3----------------------2------------------------------------------
-3-----------3----------------------0-------------3----------3-----------------3----
--------------------------3-------------------------------------------3-------------
 Comments (click here to add a non-facebook comment)
nice tab, sounds good when played smooth, one suggestion, try playing the top string in the first fret instead of open. thanx

-bwbucs23 | 3/11/2005
actually thats how I do play it....i dont know why I put open there.....i play it that way in the soundbyte....thanks for catch.
-denalitwinkie2s | 3/14/2005
it should be like this:

E---3-----3-----------0---0-1-1-0--
G-----3-1---3-1-0-1-3---3---------1
B----------------------------------
D----------------------------------
A----------------------------------
E----------------------------------
-vocs10 | 5/13/2005
how do you play the notes it has listed at the same time?

-bigblob03 | 6/13/2005
Home | FAQs | Privacy | Terms | Advertise | Contact
Top 100 Tab Sites