Give Kudos?
Are you sure you want to give kudos to rcktscientist?

Add To Songbook?
Are you sure you want to add this song to your songbook?


3,285 bands | 38,021 songs
Search: Register FREE! | Login
Browse Songs:
Browse Bands:
Tool Panel
Discuss This Song

1 2 3 4 5



Rascal Flatts - Ellsworth (Tab)
Album: Me and My Gang (2006)
Submitter: rcktscientist (0) on 4/20/06
Month Views: 562 | Total Views: 5,959
Moderator: Ray Terry | Report This Song?
Song Tools

Comment

Songbook

Kudos

Show Chords

Print

Rascal Flatts
Album: Me and My Gang
Songwriters: Neil Thrasher, Wendell Mobley, Michael Dulaney

Capo 3, all positions relative to capo

Intro


--------------------------------------------------------------------
-7-5-----------------7-5-----------------7-5------------------------
------7-6-7----6-7-------7-6-7----6-7--------7-6-7----6-7-----------
-------------7-----7------------7------7------------7-----5-4-7-4h5-
--------------------------------------------------------------------
--------------------------------------------------------------------

D                           A/C#
Grandma burned the biscuits, nearly took the house down with it
Cadd9                         G
Now she's in assisted living, we all knew that day would come
D                                 A/C#
We knew she was too gone to drive, the day she parked on I-65
Cadd9                            G
Found her on the shoulder cryin', she didn't know where she was

(Pre-echo)
Cadd9                    Bm
It's like her mind just quit
                  Em7                          D        G
Oh, but bring up grandpa, it's like someone flipped a switch


(Chorus)
   D
A front porch light and a blue Desoto
Em7                            G
Couple of straws in a Coca-Cola
                             D - A
You can see it all going down
  D
A handsome boy in army green
Em7
Tear on his face, down on a knee
G
Shaky voice, a diamond ring
       Asus4            A
She'll put you in that town
  Bm                 A
Tomorrow she won't remember
               Esus-E
What she did today
                        G   D      Em7
But just ask her about Ellsworth, Kansas 1948


------------------------------------------2
-7-5-----------------7-5----------5h7p5-0-3
-----7-6-7----6-7--------7-6-7------------2
------------7------7----------------------0
-------------------------------------------
-------------------------------------------


She takes out his medals, a cigar box of letters
Sits and scatters pictures, black and whites of days gone by

(pre-echo)
We started losing her when she lost him
But to hear her carry on, you'd swear she's seventeen again

(Chorus)
Football games and leaves are cracklin'
Walking her home in his letter jacket
You could see it all going down
A perfect night on a front porch glider
Sayin' goodnight for the next three hours
Her tired eyes go wide and bright
When she talks about that town
Tomorrow she won't remember what she did today
But just ask her about Ellsworth, Kansas 1948


--------------------10-12-----10---109\7-9-7\5-7--7-5-3-5-10-14-12-
-8-10-12--8-10---10--------12----------------------------------------
---------------------------------------------------------------------
---------------------------------------------------------------------
---------------------------------------------------------------------
---------------------------------------------------------------------

           D
While the world is spinning all around her
Em7                             G
Sharin' a sundae at the counter

He's goin' on and on about her
     Asus4                   A
Bet she's right there right now
 Bm                   A                    Esus-E
Tomorrow she won't remember what she did today
                        G   D      Em7
But just ask her about Ellsworth, Kansas 1948


---------------------------------------------------------------2-
-7-5-----------------7-5-----------------7-5-------------------3-
------7-6-7----6-7-------7-6-7----6-7--------7-6-7---7-5-2--0--2-
-------------7-----7------------7------7-----------------------0-
-----------------------------------------------------------------
-----------------------------------------------------------------



Palamin0 did a great job on the chords, so I used the same ones. Thanks palamin0.

Also, this is my first tab. Comments are welcome.
 Comments (click here to add a non-facebook comment)
Home | FAQs | Privacy | Terms | Advertise | Contact
Top 100 Tab Sites