Give Kudos?
Are you sure you want to give kudos to rooster11?

Add To Songbook?
Are you sure you want to add this song to your songbook?


3,284 bands | 38,006 songs
Search: Register FREE! | Login
Browse Songs:
Browse Bands:
Tool Panel
Discuss This Song

1 2 3 4 5



Rascal Flatts - Fast Cars And Freedom 2 (Intro)
Album: Feels Like Today (2004)
Submitter: rooster11 (0) on 6/26/05 1 comment
Month Views: 474 | Total Views: 8,323
Moderator: Ray Terry | Report This Song?
Song Tools

Comment

Songbook

Kudos

Show Chords

Print

INTRO  Capo  at  1st fret.

This is played along with the piano at the start.

e-----------------------------------------------
B-----------------------------------------------
G-----------------------------------------------
D-2h3-3-2/5-3--2-3-2-2/5(stop ring)---------------
A-----------------------------------------------
E-----------------------------------------------

This should sound pretty close if played with an echo effect to give the 
impression of two strings being played at once.
(notes are relative to capo position)

e----------------------------------------------------------
B----------------------------------------------------------
G---10-10-9-9-7-7~---9-9-7-7-5-5--0-5~---------------------
D----------------------------------------------------------
A----------------------------------------------------------
E----------------------------------------------------------




e----------------------------------------------------------
B----------------------------------------------------------
G---10-10-9-9-7-7--7/9-7-5--5-2-0-------5------------------
D----------------------------------2h3----3-2~-------------
A----------------------------------------------------------
E----------------------------------------------------------
 Comments (click here to add a non-facebook comment)
This sounds right on, so great tab!

-colekilla101 | 8/2/2005
Home | FAQs | Privacy | Terms | Advertise | Contact
Top 100 Tab Sites