Give Kudos?
Are you sure you want to give kudos to vukev?

Add To Songbook?
Are you sure you want to add this song to your songbook?


3,285 bands | 38,021 songs
Search: Register FREE! | Login
Browse Songs:
Browse Bands:
Tool Panel
Discuss This Song

1 2 3 4 5



Rascal Flatts - Here Comes Goodbye (Solo)
Album: Unstoppable (2009)
Submitter: vukev (5) on 5/17/09
Month Views: 573 | Total Views: 5,351
Moderator: Ray Terry | Report This Song?
Song Tools

Comment

Songbook

Kudos

Show Chords

Print

Rascal Flatts
Here Comes Goodbye

Key:
bh = bend & hold
br = bend & release
p  = pull off
h  = hammer on

Solo
e----------------15------------15-----------15------------------------------------------------------------
B-----17b(19)-------17b(19)-------17b(19)--------17b(19)r--15----------------------------15-17--17/22~~---
G--------------------------------------------------------------14~--12\11/12-14--16b(18)------------------
D---------------------------------------------------------------------------------------------------------
A---------------------------------------------------------------------------------------------------------
E---------------------------------------------------------------------------------------------------------

e-------------22-------------------22---------------------------
B--22b(24)--------22bh(24)--22(24)-----22b(24)r--20-20---22~~---
G---------------------------------------------------------------
D---------------------------------------------------------------
A---------------------------------------------------------------
E---------------------------------------------------------------

e-14--------14--------14--------14------------12--------12--------12------------10--------10-----------
B-17br(19)--17br(19)--17br(19)--17br(19)------15br(17)--15br(17)--15br(17)------13br(15)--13bh(15)-----
G------------------------------------------------------------------------------------------------------
D------------------------------------------------------------------------------------------------------
A------------------------------------------------------------------------------------------------------
E------------------------------------------------------------------------------------------------------
 Comments (click here to add a non-facebook comment)
Home | FAQs | Privacy | Terms | Advertise | Contact
Top 100 Tab Sites