Give Kudos?
Are you sure you want to give kudos to yinielin?

Add To Songbook?
Are you sure you want to add this song to your songbook?


2,729 bands | 35,173 songs
Search: Register FREE! | Login
Browse Songs:
Browse Bands:
Tool Panel
Discuss This Song

1 2 3 4 5



Rascal Flatts - Its Not Just Me (Solo)
Album: Rascal Flatts (2000)
Submitter: yinielin (0) on 7/22/03
Month Views: 5 | Total Views: 6,322
Moderator: Ray Terry | Report This Song?
Song Tools

Comment

Songbook

Kudos

Show Chords

Print

By:Yinielin
Rascal Flatts, Its Not Just Me

E----------------------------------------
B-----------------------------15b-15-15--
G-13/15-15-15-15-17-17b-17-17------------
D----------------------------------------
A----------------------------------------
E----------------------------------------

E----15-18-15-18-15----15-18-18-18-18/20-
B-18----------------18-------------------
G----------------------------------------
D----------------------------------------
A----------------------------------------
E----------------------------------------

E-20-20-18-15-18p15----------------------
B-------------------18p15----------------
G-------------------------17p15-15---------
D----------------------------------------
A----------------------------------------
E----------------------------------------
 Comments (click here to add a non-facebook comment)
Home | FAQs | Privacy | Terms | Advertise | Contact
Top 100 Tab Sites