Give Kudos?
Are you sure you want to give kudos to yinielin?

Add To Songbook?
Are you sure you want to add this song to your songbook?


2,732 bands | 35,202 songs
Search: Register FREE! | Login
Browse Songs:
Browse Bands:
Tool Panel
Discuss This Song

1 2 3 4 5



Rascal Flatts - This Everyday Love (Intro)
Album: Rascal Flatts (2000)
Submitter: yinielin (0) on 6/1/03 4 comments
Month Views: 2 | Total Views: 6,323
Moderator: Ray Terry | Report This Song?
Song Tools

Comment

Songbook

Kudos

Show Chords

Print

By:Yinielin
Rascal Flatts, This Everyday Love

This is the Intro and is also played throughout the 
verses. 



E---------------------------------------
B---------------------------------------
G-------5--5--5--7----7---5--5----------
D---5---2--3--2--5----5---2--3--5--5----
A---3---------------------------2--3----
E---------------------------------------

or 

E-------------------------------------
B-------------------------------------
G-------5--5--5---------5--5----------
D---5---2--3--2---------2--3--5--5----
A---3------------5----5-------2--3----
E----------------3----3---------------

I cant really tell which one it is.
 Comments (click here to add a non-facebook comment)
sounds good to me. keep it up
-countryarcher | 10/14/2004
sounds really good, thanks
-JDRooneyluvr | 1/3/2005
It's the first one. Good job.
-KU_isbestever | 6/9/2005
I think so too. Although in concerts he plays the second one.
-yinielin | 6/9/2005
Home | FAQs | Privacy | Terms | Advertise | Contact
Top 100 Tab Sites