Give Kudos?
Are you sure you want to give kudos to taylor7458?

Add To Songbook?
Are you sure you want to add this song to your songbook?


2,725 bands | 35,156 songs
Search: Register FREE! | Login
Browse Songs:
Browse Bands:
Tool Panel
Discuss This Song

1 2 3 4 5



Reckless Kelly - Crazy Eddies Last Hurrah (Solo)
Submitter: taylor7458 (2) on 5/25/10
Month Views: 29 | Total Views: 6,824
Moderator: rab05 | Report This Song?
Song Tools

Comment

Songbook

Kudos

Show Chords

Print

Title:_Crazy Eddies Last Hurrah Solo Please correct if needed - Jack
Solo 1
--------------------------------------0--0--0-
--------------------------------------5--3--0-
--2br2--0------0--0---2br2--0-----0-0---------
-----------2------------------2---------------
----------------------------------------------
----------------------------------------------

----------------------------------------------
----------------------------------------------
--2-0-2-4-2-0------2-0------------------------
--------------2--------2p0--------------------
---------------------------2p0----------------
-------------------------------3--------------

Solo 2
--------------------------3-3-3-5-5-5--7-5---5
-------------------------------------------8--
-2-0---2/4--4-4-5-5-5--7----------------------
----------------------------------------------
----------------------------------------------
----------------------------------------------

-----7-5-3-3----------------------------------
--8----------0-1-3-1-0----0-1-3-1-0-----------
-----------------------0-------------2----5-4-
----------------------------------------------
----------------------------------------------
----------------------------------------------

---------
---------
--2------
----0-5--
---------
---------
 Comments (click here to add a non-facebook comment)
Home | FAQs | Privacy | Terms | Advertise | Contact
Top 100 Tab Sites