Give Kudos?
Are you sure you want to give kudos to Koichi Kondo?

Add To Songbook?
Are you sure you want to add this song to your songbook?


2,720 bands | 35,142 songs
Search: Register FREE! | Login
Browse Songs:
Browse Bands:
Tool Panel
Discuss This Song

1 2 3 4 5



Restless Heart - You Can Depend On Me (Tab)
Album: The Best of Restless Heart (1991)
Submitter: Koichi Kondo (311) on 10/28/19
Month Views: 116 | Total Views: 145
Moderator: Ray Terry | Report This Song?
Song Tools

Comment

Songbook

Kudos

Show Chords

Print

You Can Depend on Me
Written by Ronnie Rogers & Jimmy Griffin
Recorded by Restless Heart

(No Capo)

Solo                 (G)                (D/F#)              (Em)              (Em)
E: -----------------||------------------|-2/3-2-0---0-2-3-5/|-7-3---3/5-2/3-2/|-3-----3-0-------|
B: -----------------||----------------0-|---------3---------|-----------------|---3-0-----3-----|
G: -----------0-2-0-||---4-4-4-4-2-0-2--|-------------------|-----------------|-------------2---|
D: ---------4-------||-0----------------|-------------------|-----------------|-----------------|
A: ---4/5-5---------||------------------|-------------------|-----------------|-----------------|
E: -----------------||------------------|-------------------|-----------------|-----------------|


   (C)               (D)             (G)               (G)
E: |-0---------------|---------0---2-|-3-1-------------|-----------------||
B: |---3-1-0---------|---------------|-----3-----------|-----------------||
G: |---------2-0---0-|---0-2-0-------|-------3-2-0-----|-0---------------||
D: |-------------2---|-4-------------|-------------2-0-|-----------------||
A: |-----------------|---------------|-----------------|-----------------||
E: |-----------------|---------------|-----------------|-----------------||
 Comments (click here to add a non-facebook comment)
Home | FAQs | Privacy | Terms | Advertise | Contact
Top 100 Tab Sites