Give Kudos?
Are you sure you want to give kudos to Koichi Kondo?

Add To Songbook?
Are you sure you want to add this song to your songbook?


2,722 bands | 35,151 songs
Search: Register FREE! | Login
Browse Songs:
Browse Bands:
Tool Panel
Discuss This Song

1 2 3 4 5



Rhonda Vincent - Blue Sky Cathedral (Chord)
Album: Sunday Mornin' Singin' (Live) (2012)
Submitter: Koichi Kondo (268) on 2/13/13
Month Views: 9 | Total Views: 2,294
Moderator: lorihum | Report This Song?
Song Tools

Comment

Songbook

Kudos

Show Chords

Print

Blue Sky Cathedral 
Recorded by Rhonda Vincent

(Capo on 4)

Intro.:  |(G)(G7)|(C)(G)|(C)(D)|(G) |

E |-----------------------|-----------------------3---|
B |0-3-3---3/5-3----------|-----1-------------------3-|
G |---------------2/4-2-0-|---0-----0-----0---2/4-----|
D |-----------------------|2----------2-0-------------|
A |-----------------------|---------------------------|
E |-----------------------|---------------------------|

E |------------------------------|----------------------|
B |-------3/5-3--------3---------|----------------------|
G |4/5--5--------2/4-2---2-0-2/4-|0-----------0---------|
D |------------------------------|----2-0---0-----------|
A |------------------------------|--------2-----3-------|
E |------------------------------|----------------------|
 
 Comments (click here to add a non-facebook comment)
Home | FAQs | Privacy | Terms | Advertise | Contact
Top 100 Tab Sites