Give Kudos?
Are you sure you want to give kudos to taylor7458?

Add To Songbook?
Are you sure you want to add this song to your songbook?


2,722 bands | 35,144 songs
Search: Register FREE! | Login
Browse Songs:
Browse Bands:
Tool Panel
Discuss This Song

1 2 3 4 5



Robert Earl Keen - Corpus Christi Bay (Lead)
Submitter: taylor7458 (0) on 6/16/10
Month Views: 1 | Total Views: 5,763
Moderator: countrified | Report This Song?
Song Tools

Comment

Songbook

Kudos

Show Chords

Print

Corpus Christy_Bay
Robert Earl Keen
Corpus Christi Bay
This could be a little off since it really is a steel guitar doing the solo
Please correct if you find mistakes
Tabbed by Jackson


Solo
---------------------------------------------
--15---------13---11-----------8-9-11-8--13--
-----15------13---12----8--10----------------
--------15-----------------------------------
---------------------------------------------
---------------------------------------------

-16-15-13-----------11--------13--------------
----------16-11--11----11--13----13-----------
----------------------------------------------
----------------------------------------------
----------------------------------------------
----------------------------------------------

                          Riff 1 
--------------------------||---------------||
--15\---------------------||---------------||
-------15---15\-----------||---------------||
------------------15------||---------------||
----------------------13--||--------3-5-6--||
--------------------------||--1/3-5--------||
 Comments (click here to add a non-facebook comment)
Home | FAQs | Privacy | Terms | Advertise | Contact
Top 100 Tab Sites