Give Kudos?
Are you sure you want to give kudos to DaveWH?

Add To Songbook?
Are you sure you want to add this song to your songbook?


2,987 bands | 36,846 songs
Search: Register FREE! | Login
Browse Songs:
Browse Bands:
Tool Panel
Discuss This Song

1 2 3 4 5



Robert Earl Keen - That Buckin' Song (Solo)
Album: Walking Distance (1998)
Submitter: DaveWH (3) on 5/29/03
Month Views: 165 | Total Views: 4,738
Moderator: countrified | Report This Song?
Song Tools

Comment

Songbook

Kudos

Show Chords

Print

That Buckin Song   by Robert Earl Keene

Ending Solo : I missed the first solo.  I'll work on it later.

tabbed by davewh at cox.net

/ slide up
\ slide down
h hammer on


|------------9-9-\----10--7--------------------------|
|-------8----9-9-\-----------7-9--------7------------|
|-6-/-9---9--9-9-\---------------9-6--9----7h9-7-8-7-|
|----------------------------------------------------|
|----------------------------------------------------|
|----------------------------------------------------|


                                        *
|-------8-9---------------------------------------------------------|
|-----------10---7--7-8-7----------------------5--7-5---8b(9)-5-----|
|--------------9-----------5-6-------------5-7------------------6-7-|
|-10h11------------------------7--5----5h6--------------------------|
|-------------------------------------------------------------------|
|-------------------------------------------------------------------|



|---------7----6----9-----9---7-9--9---------12\-|
|-----7-----------9----10------------8--------9\-|
|-7/8---8----8-------------------------9-\----9\-|
|------------------------------------------------|
|------------------------------------------------|
|------------------------------------------------|


* - this part is played quickly.  Not 100% correct, but it sounds okay.
 Comments (click here to add a non-facebook comment)
Home | FAQs | Privacy | Terms | Advertise | Contact
Top 100 Tab Sites