Give Kudos?
Are you sure you want to give kudos to axehappy?

Add To Songbook?
Are you sure you want to add this song to your songbook?


2,732 bands | 35,201 songs
Search: Register FREE! | Login
Browse Songs:
Browse Bands:
Tool Panel
Discuss This Song

1 2 3 4 5



Rodney Crowell - 'Til I Gain Control Again (Lead)
Album: The Essential Rodney Crowell (2004)
Submitter: axehappy (88) on 2/4/02
Month Views: 17 | Total Views: 10,483
Moderator: Ray Terry | Report This Song?
Song Tools

Comment

Songbook

Kudos

Show Chords

Print

Rodney Crowell - 'Til I Gain Control Again (with lead)

By axehappy - axehappy at countrytabs.com

Play with capo on 1st fret. 
Chord shapes are relative to position of capo.


Ab     =   320003                          Eb      =   xx0232

Ebsus  =   xx0233                          Bb      =   x02220

***********************************************************************


Ab   Eb   Ab   Eb  Ebsus 
INTRO


Eb            Bb           Eb    
Just like the sun over the mountain tops,
Ab                         Eb
You know I'll always come again.
Ab                          Eb
You know I love to spend my mornings,
Bb                            Eb
Like sunlight dancing on your skin.


Eb                 Bb                   Eb
I've never gone so wrong as for telling lies to you,
Ab                            Eb
What you've seen is what I've been.
Ab                       Eb
There is nothing I could hide from you,
Bb                       Eb
You see me better than I can.


Ab                          Eb
Out on the road that lies before me now,
Ab                                Eb
There are some turns where I will spin.
Ab                       Eb
I only hope that you can hold me now,
Bb                       Eb  Ebsus
'Til I can gain control again.


Eb  Bb  Eb  Ab  Eb  Ab  Eb  Bb  Eb 
LEAD SOLO


                Bb             Eb
And like a lighthouse you must stand alone.
Ab                           Eb
Landmark a sailor's journeys in.
Ab                           Eb      
No matter what sea I've been sailing on,
Bb                         Eb
I'll always roll your way again.


Ab                          Eb
Out on the road that lies before me now,
Ab                                Eb
There are some turns where I will spin.
Ab                       Eb
I only hope that you can hold me now,
Bb                       Eb
'Til I can gain control again.
Ab                       Eb
I only hope that you can hold me now,
Bb                       Eb
'Til I can gain control again.
Bb                       Ab     Eb
'Til I can gain control again.



***********************************************************************

/   =   slide up                     \   =   slide down

p   =   pulloff                      bh  =   bend & hold

r   =   release bend                 h   =   hammer-on

b   =   bend                         

***********************************************************************



LEAD SOLO (All notes are relative to position of capo)



   Eb                         Bb              Eb

E--------------------------------------------------------
B--------------------------------------------------------
G----------2---------------------------------------------
D-----0-2-4-4/5\4p2-2/4---4-4-4/5\4p2--2-4-4bh-4r-4-2-4--
A--0-2-------------------0-------------------------------
E--------------------------------------------------------

           Ab                   Eb                            Ab

E----------------------------------------------0-3-5-2h3p2-----2---
B--------------3/5-3-3h5p3\2------------------3-----------5-3-5----
G---6b-6br-4----------------2/4-4-4\2--------2------------------4--
D--4---------------------------------0-2h4--4----------------------
A-----------4-5-----------------------0----------------------------
E------------------------------------------------------------------

                                 Eb

E-------7-10/12-10-10h12p10\9--------10---------------------
B------8---------------------10b-10r---8-7h8p7--------------
G-----7---------------------------------------9-7-6h7p6-----
D--7/9-------------------------------------------------7-7--
A-------------------------------------------------------9---
E-----------------------------------------------------------

                Bb                                  

E----------------5/7-7-5--7-10-9h10p9------------------
B----8-7h8p7-------------------------10-9-8------------
G-----------9-7-6--------------------------9-7\6-------
D---7---------------------------------------9---7-6-5--
A--9---------------------------------------------------
E------------------------------------------------------

     Eb           

E----------------------------------|
B------------------8p7-------------|
G------------------7---6h7-6\4\2---|
D--0-0h2p0-0-0h2/4-----7---7\5\4---|
A---4-------4----------------------|
E----------------------------------|
 Comments (click here to add a non-facebook comment)
Home | FAQs | Privacy | Terms | Advertise | Contact
Top 100 Tab Sites