Give Kudos?
Are you sure you want to give kudos to danielcraggs?

Add To Songbook?
Are you sure you want to add this song to your songbook?


2,830 bands | 35,972 songs
Search: Register FREE! | Login
Browse Songs:
Browse Bands:
Tool Panel
Discuss This Song

1 2 3 4 5



Ron Block - Another Life I'm Living On (Solo)
Submitter: danielcraggs (3) on 4/23/05
Month Views: 13 | Total Views: 3,591
Help! We need a moderator for this artist. | Report This Song?
Song Tools

Comment

Songbook

Kudos

Show Chords

Print

This is my take on the guitar solo. Split up into sections for easier
learning. Comments and corrections are welcome!

                                                     1/4                   
E||--------------------|---------------|-6-8-8-6/8-3-6b-8-11-10-8-6\3-3-1-|
B||--------------------|---------------|----------------------------------|
G||--0---0-------------|---0-----------|----------------------------------|
D||----3---3-1-0-------|-3---3-1-3/5-3-|----------------------------------|
A||--3-------------1-3-|---------------|----------------------------------|
E||--------------3-----|---------------|----------------------------------|

       1--------
E|-8-1-6b-6bh-6r-3-1-----|--------||
B|-------------------4\3-|--------||
G|-----------------------|-3-5\-0-||
D|-----------------------|--------||
A|-----------------------|--------||
E|-----------------------|--------||

Key:
----
b = bend
bh = bend hold
r = bend release
/ = slide up
\ = slide down
1/4 (above bend) = quarter bend
1---- (above bend) = full bend and hold
 Comments (click here to add a non-facebook comment)
Home | FAQs | Privacy | Terms | Advertise | Contact
Top 100 Tab Sites