Give Kudos?
Are you sure you want to give kudos to cletus?

Add To Songbook?
Are you sure you want to add this song to your songbook?


2,719 bands | 35,141 songs
Search: Register FREE! | Login
Browse Songs:
Browse Bands:
Tool Panel
Discuss This Song

1 2 3 4 5



Rosanne Cash - Tennessee Flattop Box (Intro)
Submitter: cletus (0) on 1/7/03
Month Views: 7 | Total Views: 7,339
Sound Byte: Listen
Moderator: josielittle | Report This Song?
Song Tools

Comment

Songbook

Kudos

Show Chords

Print

    x  =  muted click             h  =  hammer-on

    p  =  pulloff                 /  =  slide up
   
  pbr  =  pre-bend & release      \  =  slide down
  
   br  =  bend & release         bh  =  bend & hold

                     Tennessee Flattop box intro
Note: The recording is capo'd first fret.To use capo all notes relative 
to capo position

E---------------------------------------------------------|
B------1/2-2-2------1/2-2-2------1/2----------------------|
G------1/2-2-2---0--1/2-2-2---0--1/2-0--------------------|
D--4--5---------2------------2----------4--2--0--0--------|
A-------------------------------------------------4--2--0-|
E---------------------------------------------------------|

                     (mute with palm)
E---------------------------------------------------------|
B---------------------------------------------------------|
G---------------------------------------------------------|
D----4p2--4p2-----4p2--4p2--------------------------------|
A--------------0------------0-----------------------------|
E---------------------------------------------------------|

 Comments (click here to add a non-facebook comment)
Home | FAQs | Privacy | Terms | Advertise | Contact
Top 100 Tab Sites