Give Kudos?
Are you sure you want to give kudos to brentsloan?

Add To Songbook?
Are you sure you want to add this song to your songbook?


2,732 bands | 35,202 songs
Search: Register FREE! | Login
Browse Songs:
Browse Bands:
Tool Panel
Discuss This Song

1 2 3 4 5



Ryan Bingham - Boracho Station (Tab)
Album: Mescalito (2007)
Submitter: brentsloan (0) on 6/22/09
Month Views: 1 | Total Views: 9,856
Moderator: gnr23 | Report This Song?
Song Tools

Comment

Songbook

Kudos

Show Chords

Print

Intro:

------------------------------------0--
------------------------------------0--
------------------------------------1--
-------------0-2-3-2-0--------------2--
-------0-2-3-----------3-2-0--------2--
-0-1-3-----------------------3-1-0--0--


-0-1-3-1-0-----------0----------------------
-----------3-1-0-----0----------------------
-----------------2-1-1----------------------  
---------------------2--------------0-2-3---
---------------------2--------0-2-3---------
---------------------0--0-1-3---------------

Strumming:

---0-------0-------0------0---
---1-------0-------1------0---  
---2-------1-------2------1---   (Repeat)
---2-------2-------2------2---
---0-------2-------0------2---
---0-------0-------0------0---

---------------------------------
----1-------1-------3------------
----2-------2-------4-------1----   (Repeat)
----2-------3-------5-------2----
----------------------------2----
---------------------------------

Mariachi stuff:

-0-1-3-1-0-------------------------------0-0--
-----------0-1-3-0-1-------0-1-3-1-0-----0-0--
---------------------2-1-2-----------2-1-1-1--  (Repeat)
-----------------------------------------2-2--
-----------------------------------------2-2--
----------------------------------------------


-----------------------------------------
-----------------------------------------
----1-------2-------4-------2-------1----   (Repeat)
----2-------3-------5-------3-------2----
----2-------3-------5-------3-------2----
-----------------------------------------


----0---0---0---0---0---0---0---0---0---0---0------
----------0-----------0-------1---0----------------
------1-----------1-------2-----------2---0--------   (Repeat)
--2-----------2-------------------------------3----
---------------------------------------------------
---------------------------------------------------


Song:

---------------1-1--------------------
-------1-1-----3-3-------------1-1----
-------2-2-----2-2-------------1-1----   (Repeat)
-------2-2--0----------2-2-----2-2----
----0------------------2-2--0---------
--------------------0-----------------
 Comments (click here to add a non-facebook comment)
Home | FAQs | Privacy | Terms | Advertise | Contact
Top 100 Tab Sites