Give Kudos?
Are you sure you want to give kudos to txdieselpower?

Add To Songbook?
Are you sure you want to add this song to your songbook?


2,732 bands | 35,202 songs
Search: Register FREE! | Login
Browse Songs:
Browse Bands:
Tool Panel
Discuss This Song

1 2 3 4 5



Ryan Bingham - Direction Of The Wind (Tab)
Album: Junky Star (2010)
Submitter: txdieselpower (0) on 11/17/10
Month Views: 1 | Total Views: 5,343
Moderator: gnr23 | Report This Song?
Song Tools

Comment

Songbook

Kudos

Show Chords

Print

Song: Direction of the Wind
Artist: Ryan Bingham
Album: Junky Star

Open A tuning

Intro:

e |--2s3-2-1-------------------------------------------0--0-0--0--|
c#|--2s3-2-1-------------------------------------------0--0-0--0--|
a |--3s4-3-2p0-----------------------------------------0--0-0--0--|
E |------------2p0-2s5-4-2-0---------------------------0--0-0--0--|
A |--------------------------2p0-2s5-4-2-0-------------0--0-0--0--|
E |----------------------------------------2p0h2p0-2s5-5--5-5--5--|

Intro/Breaks:

e |------------0--0-0--0------|
C#|------------0--0-0--0------|
a |------------0--0-0--0------|
E |------------0--0-0--0------|  a few times then,
A |------------0--0-0--0------|
E |--0---2---2s5--5-5--5------| 

e |------------0--0-0--0------|
c#|------------0--0-0--0------|
a |------------0--0-0--0------|
E |------------0--0-0--0------| 
A |------------0--0-0--0------|
E |--2---3---3s5--5-5--5------|

Chords used in the verses:

e |--0---0---0--------------|
c#|--0---1---3--------------|
a |--0---0---0--------------|
E |--0---2---4--------------|
A |--0---0---0--------------|
E |--0---0---0--------------|


Lyrics:

There's just no time for the agenda
The lame and fickle feuds
No time for all these bribes that keep
A poor man sewin' shoes
In a box

There's just no time for propaganda
Or media filled with hate
No time for scr i pted messages
That slither around like snakes
In your brain

When people all around
Are startin' to begin
To understand that here and now
Is what we're livin' in

Yesterday is gone
So that a new day can begin
And it seems there's been
A change of direction
In the wind

There's just no time for talkin' prejudice
Of different colored fellows
No time for cruel harassment
Of the strippers in stilettos
On the boulevard

There's just no time for these traditions
Tyin' people down to class
When everyone's a shade of green
That suffers in the grass
Of greed

When people all around
Are startin' to begin
To understand that here and now
Is what we're livin' in

Yesterday is gone
So that a new day can begin
And it seems there's been
A change of direction
In the wind

There's just no time for the delusion
No use for stealin' dreams
No time for the intentions
When you say let freedom rin'
On foreign land

There's just no time for the reflection
Without recognizin' crimes
No time for all the rules that limit
Human equal rights
To this day

When people all around
Are startin' to begin
To understand that here and now
Can be powered by the wind

Yesterday is gone
So that a new day can begin
And it seems there's been
A change of direction
In the wind

No time for all these factories
Of guilt and all the glues
No time for this supply
If this demand can never chose
To eat healthy

There's just no time for the control
Of what we do and what we say
No time for all these holy wars
With Gods out on display
What happened to peace and love?

When people all around
Are startin' to begin
To understand that here and now
Is what we're livin' in

Yesterday is gone
So that a new day can begin
And it seems there's been
A change of direction
In the wind
 Comments (click here to add a non-facebook comment)
Home | FAQs | Privacy | Terms | Advertise | Contact
Top 100 Tab Sites