Give Kudos?
Are you sure you want to give kudos to Deleted Member?

Add To Songbook?
Are you sure you want to add this song to your songbook?


2,732 bands | 35,224 songs
Search: Register FREE! | Login
Browse Songs:
Browse Bands:
Tool Panel
Discuss This Song

1 2 3 4 5



Shenandoah - Jamie Baker's Love Slave (Chord)
Submitter: Deleted Member (0) on 8/9/01
Month Views: 6 | Total Views: 2,861
Moderator: dray149 | Report This Song?
Song Tools

Comment

Songbook

Kudos

Show Chords

Print

Key of F
Main Rif:
 Bb 	     F 	       Bb  1st ending (Bb)   2nd ending   (Bb)
|----------------------  |---------------  |---------------------------
|----------------------  |---------------  |---------------------------
|------------(Play 3x)   |---------------  |---------------------------
|-1-0------------------  |-1-0-----------  |-1-0-----1-0---------------
|-----3-1-----------0-1- |-----3-1-1-1-1-  |-----3-1-----3-1-----------
|---------3-1-1-1-3----  |---------------  |-----------------3(4)(3)-1-

 3rd ending (F)       A1: 	  	       B1:
|-------------       |-------------------    |-------------------------
|-------------       |-------------------    |-------------------------
|-------------       |-------------------    |-------------------------
|-1-0---------       |-------------------    |-------------------------
|-----3-1-----       |---------------0-1-    |-------------0-----------
|---------3-1-       |-3(4)(3)-1-1-3-----    |-3(4)(3)-1-1h3-3-1-1-1-1-

          F 	  	  	 Bb 	  	 F  Bb
Well her love was a habit and I tried to kick it (A1)
     F 	  	  	  	 Bb 	      F
So I went downtown and bought a one way ticket (B1)
 	 F 	  	    Bb 	  	  F Bb
Then I road that greyhound down to makeup (A1)
 	 F 	  	  	  Bb 	  	    F
Then I hitchhiked back 'cause my heart was breakin' (B1)


Chorus
F 	  Bb 	    F   Dm 	 F 	 Bb 	       Bb   Bb
Oh now I see, it's destiny.  I can't be free, I'm her love slave
(solo-2nd)
 	  	 F        Bb  F  Bb  F  Bb
Jamie Baker's love slave

 	  F 	  	  Bb 	  	         F  Bb
When I'm close to her my heart starts a thumpin' (A1)
     F 	  	  	 Bb 	  	  	 F
When she says froggie I can't help but jumpin'  (B1)
 	    F 	  	  	    Bb          F  Bb
She's got a hold on me and there's no escapin' (A1)
 	     F 	  	  	 Bb 	     F 	 
Yeah it's a ball and chain of my own makin' (B1)

chorus-main riff repeat first part only twice(no other ending on it)

 	 C 	  	    F 	  	  	 C 	  	    F
Yeah I used to go boating, used to go fishin', used to go drinkin' too
     C 	  	  	     F
But since I been exposed to her kinda kissin'
 	 Bb 	  	      C       F   Bb F    Dm F    Bb
There's nothin' else I wanna do.   |-----------------------
 	  	  	  	    |-----------------------
 	  	  	   	    |-5-5/10---------5-5/10-
slide chords- "yeah hoo!" 	    |-3-3/-8-10-10/7-3-3/-8- 	 
 	  	  	  	    |---------8--8/5--------
 	  	  	  	    |-----------------------
Bb 	  	  	  	  	  	  	 F  
Well I'm her slave,(start main solo...)  Jamie Baker's love slave
(...use 3rd ending) 
 Comments (click here to add a non-facebook comment)
Home | FAQs | Privacy | Terms | Advertise | Contact
Top 100 Tab Sites