Give Kudos?
Are you sure you want to give kudos to lmofle?

Add To Songbook?
Are you sure you want to add this song to your songbook?


2,768 bands | 35,502 songs
Search: Register FREE! | Login
Browse Songs:
Browse Bands:
Tool Panel
Discuss This Song

1 2 3 4 5



Star Room Boys - White Lies, Blue Tears (Intro)
Submitter: lmofle (189) on 7/26/02
Month Views: 10 | Total Views: 2,586
Moderator: MuleCrew | Report This Song?
Song Tools

Comment

Songbook

Kudos

Show Chords

Print

White Lies
By The Star Room Boys

INTRO & CHORUS

Thanks To Axehappy for the intro and lead on this song!!

E------------------------------------------------------------------------
B-------------------------1----------------------------------------------
G-------------------------2----------------------------------------------
D-----0-2-0------------0-2-2----2----2-2--2/4--4br-4br----------0------0-
A--1h2-----2-3h5-5--1/2-0----0-2-2/3-3-3-3-/5-5---3---5\-----------------
D-----------5------5-------------------------------------5-5-7/9--5-7/9--

E-----------------------------------------------|
B-----1-1--1-1----3-3---1-----------------------|
G-----2-2--1-1----2-2---0---------------0-------|
D-----2-2--2-2-2/4---2-2-2-----------0h2-2p0-0--|
A--0-0----0-----------------------1/2-------2---|
D--------------------------5-0h2-5--------------|

VERSE

E-------------------------------------3-2-0-2-------------------------------------------------|
B----------3-----5-5-5-------5-5-5----3-3-3-3-----3-3-3-----5-5-5---8\7-8-7-8\7----8-7-8\7----|
G---0------4-----5-5-5-------5-5-5---2--------0---4-4-4-----5-5-5---7-7-7-7-7-7----7-7-7-7-7--|
D---0-0-3/5-5-5/7---7-7-2-3/5---5-5-0----0-----3/5---5-5-5/7---7-7-7---7---7------7---7-------|
A---------------------------------------------------------------------------------------------|
D--5------------------------------------------------------------------------------------------|
 Comments (click here to add a non-facebook comment)
Home | FAQs | Privacy | Terms | Advertise | Contact
Top 100 Tab Sites