Give Kudos?
Are you sure you want to give kudos to bad_giles1?

Add To Songbook?
Are you sure you want to add this song to your songbook?


2,630 bands | 34,427 songs
Search: Register FREE! | Login
Browse Songs:
Browse Bands:
Tool Panel
Discuss This Song

1 2 3 4 5





Star Spangled Banner - Star Spangled Banner(2) (Tab)
Submitter: bad_giles1 (0) on 8/20/03 4 comments
Month Views: 12 | Total Views: 3,173
Help! We need a moderator for this artist. | Report This Song?
Song Tools

Comment

Songbook

Kudos

Show Chords

Print

Star Spangled Banner Tab



e---------------9-7---------------9-7-----------------------
B------------10-----10----------------10-9-7-9-10-10--------
G--9-6---6-9-----------6-8-9--9-9---------------------9-6---
D------7--------------------------------------------------7-
A-----------------------------------------------------------
E-----------------------------------------------------------

play above riff twice:


e--9-9-9-10-12-12--10-9-7-9-10-10--10-9-7-------------------
B-----------------------------------------10-9-7-9-10-------
G-----------------------------------------------------6-8-9-
D-----------------------------------------------------------
A-----------------------------------------------------------
E-----------------------------------------------------------


e---------------------7-9-10----7-------------
B----10-10-10-9-7-7-7--------10---10-9--------
G--9------------------------------------------
D---------------------------------------------
A---------------------------------------------
E---------------------------------------------


e---------7-9-10-12----7-9-10-7---------------
B------10-----------10----------10------------
G--9-9----------------------------------------
D---------------------------------------------
A---------------------------------------------
E---------------------------------------------


By the way this sounds great on an electric

This is my first tab so please COMMENT
 Comments (click here to add a non-facebook comment)
Good Job for your first time.
There is one thing i found out though,
if you add a hammer-on between the
10 10 10 9 in the third graph it sounds much better. so it would look like this
10-10-10h9. Other than that great Job.
-cbrianjames3 | 8/26/2003
yea it does. thats the way i play it, but i play it with some distortion and with slides and hammer on's
-bad_giles1 | 8/26/2003
good job. it's the best i've seen yet
-The Rock2003 | 11/2/2003
This one sounds better than the other two that have been rated!~!
-mea06 | 2/7/2005
Home | FAQs | Privacy | Terms | Advertise | Contact
Top 100 Tab Sites