Give Kudos?
Are you sure you want to give kudos to axehappy?

Add To Songbook?
Are you sure you want to add this song to your songbook?


2,732 bands | 35,202 songs
Search: Register FREE! | Login
Browse Songs:
Browse Bands:
Tool Panel
Discuss This Song

1 2 3 4 5



Steve Azar - I Don't Have To Be Me ('Til Monday) (Lead)
Album: Waitin' on Joe (2002)
Submitter: axehappy (6) on 2/23/02 1 comment
Month Views: 1 | Total Views: 5,949
Moderator: Ray Terry | Report This Song?
Song Tools

Comment

Songbook

Kudos

Show Chords

Print

Steve Azar - I Don't Have To Be Me 'Til Monday (lead)

By axehappy - axehappy at countrytabs.com

Play this with a slide.

***********************************************************************


INTRO


E------------------------------------------------------------|
B------------------------------------------------------------|
G--6/8--------------6\5-5\3----6/8---------8/10-8\6-6--/13---|
D-------6-8/10-6--6----6---6------6-10\8-6-8/10-8\6-6--/13---|
A------------------------------------------------------------|
E------------------------------------------------------------|


SOLO


E-----------------------------------16--16-16-16-15----------------
B---------------14\13-14\13----14/16--16-----------16-16/18-16-16--
G--12/13-12/13-------------13--------------------------------------
D--12/13-12/13-----------------------------------------------------
A------------------------------------------------------------------
E------------------------------------------------------------------


E------------------------|
B--14\13--14\13--14/16---|
G-------13-----13--------|
D------------------------|
A------------------------|
E------------------------|
 Comments (click here to add a non-facebook comment)
On the intro when you play the 12/13 just play the G string and Not the D it sounds better i think.12/13
-yinielin | 1/31/2003
Home | FAQs | Privacy | Terms | Advertise | Contact
Top 100 Tab Sites